#1
just wondering how you would pick this piece of guitar

(main riff in diary of a madman)


-------------------------------------|---------------------------------|
-------------------------------------|---------------------------------|
-----5---4-------2---4---5---4---2---|------5---4---2---4---5---4~-----|
-------2---2---2---2---2---2---2---2-|----2---2---2---2---2---2--------|
--0----------0-----------------------|--0------------------------------|
-------------------------------------|------------------------------0--|


edit: i currently do it as

D U D U U D D U D U D U D U D U U D D U D U D U D U D U D U D
What's the difference between a chickpea and a lentil?
I've never paid to have a lentil on my face!
Last edited by Miracle_Man at Mar 31, 2008,
#4
Quote by Miracle_Man
just wondering how you would pick this piece of guitar

(main riff in diary of a madman)


-------------------------------------|---------------------------------|
-------------------------------------|---------------------------------|
-----5---4-------2---4---5---4---2---|------5---4---2---4---5---4~-----|
-------2---2---2---2---2---2---2---2-|----2---2---2---2---2---2--------|
--0----------0-----------------------|--0------------------------------|
-------------------------------------|------------------------------0--|


Id alternate pick it. up/down/up

EDIT: yeah i just played it and alternate picking would be your friend.
Last edited by WillPlayForFood at Mar 31, 2008,
#7
Quote by guitardude34875
with a guitar pick, n00b


hmm yes very nice, especially from a 13 year old
What's the difference between a chickpea and a lentil?
I've never paid to have a lentil on my face!
#9
Quote by Miracle_Man
hmm yes very nice, especially from a 13 year old

Hey cut him some slack, he's almost 14!
#10
Quote by Miracle_Man
hmm yes very nice, especially from a 13 year old


i was just kidding, it was a joke, so laugh, i said laugh!!!
#11
I alternate pick 90% of everything I play.

Or for classical guitar, I would use the thumb for the bottom string, and 'a' for the 3rd string, and 'm' for the 4th.
#12
Quote by Miracle_Man
just wondering how you would pick this piece of guitar

(main riff in diary of a madman)


-------------------------------------|---------------------------------|
-------------------------------------|---------------------------------|
-----5---4-------2---4---5---4---2---|------5---4---2---4---5---4~-----|
-------2---2---2---2---2---2---2---2-|----2---2---2---2---2---2--------|
--0----------0-----------------------|--0------------------------------|
-------------------------------------|------------------------------0--|


edit: i currently do it as

D U D U U D D U D U D U D U D U U D D U D U D U D U D U D U D



I would do: D D U D U U D D U D U D U D...you get the picture
#14
I'd do it all in downstrokes.
Co-President of UG's Tubgirl Virgins Club

#18
I would play that all downpicks. Or alternate.

Another thing that always helps is Slash's style, DDU UDU DDU UDU....
The spaces represent pauses