#2
depends on the type of music you want to play
Quote by dminishedthingy
It didn't seem possible, but apparently Messiah can spam even more now.


Quote by \Powerslave/
I can see it now. "Dark Thrones and Black People".


Quote by \Powerslave/
I pretty much wank something small and sleek.

ololololololol


JOIN THE NEKROGESTAPO!
#3
I learned the minor penatonic blues first.
Since the creation of the Internet, the Earth's rotation has been fueled, primarily, by the collective spinning of English teachers in their graves.
#5
I like the D Harmonic Minor scale.
To me:
Quote by crazy8rgood

In fact, I almost ALWAYS agree with YourDad.

Quote by itchy guitar
One of the best replies ever.

In the same thread

Do you love Arsis?
#6
natural major and natural minor would be first i guess
then the major and minor arpeggios
then take it from there



I WON'T GET TO GET WHAT I'M AFTER, 'TIL THE DAY I DIE


Quote by ealtdharkon

If there's fluff of the muff,
She's old enough!

...gotta warn you though, witty rhymes do NOT hold up in court...


#7
The 7 positions of the major scales.
Quote by alteredstates
If you are rowing down the road in your canoe and your wagon wheel falls off. How many pancakes does it take to make a doghouse?

Green, because a vest has no sleeves.

Can't we all just get a bong?
#8
Pentatonic.
"A war is coming, I've seen it in my dreams. Fires sweeping through the earth, bodies in the streets, cities turned to dust. Retaliation..."


Check out my amazing band!
An Abstract Illusion
#9
A chromatic
Youll need an extra finger

|---------------------------------------------------------------------------4--5--6--7--8------
|---------------------------------------------------------------5--6--7--8---------------------
|------------------------------------------------4--5--6--7--8---------------------------------
|---------------------------------4--5--6--7--8------------------------------------------------
|------------------4--5--6--7--8---------------------------------------------------------------
|------5--6--7--8------------------------------------------------------------------------------
#10
pentatonic minor and major
We walked into the night

Am I to bid you farewell?


Why can't you see that I try
When every tear I shed


Is for you?
#11
Familiarise yourself to begin with C D E F G A B; in the basic Minor and Major scales.
#12
alright, to add to this situation, say that i wanted to play jazz, and metal. then what scales?
#13
OR

A minor scale(first one i learnt)

|----------------------------------------------------5---7--8------
|------------------------------------------5--6--8---------------------
|---------------------------------4--6--7----------------------------------
|--------------------------5--7------------------------------------------------
|-----------------5--7--8---------------------------------------------------------------
|------5--7--8------------------------------------------------------------------------------
#14
For better answers try the Musician Talk forum. Read the stickied thread for some basic info and feel free to start a thread with any questions.
#17
Quote by 2mins2midnite
OR

A minor scale(first one i learnt)

|----------------------------------------------------5---7--8------|
|------------------------------------------5--6--8-----------------|
|---------------------------------4--[U][B]5[/B][/U]--7--------------------------|
|--------------------------5--7------------------------------------|
|-----------------5--7--8------------------------------------------|
|------5--7--8-----------------------------------------------------|


Fixed.
"A war is coming, I've seen it in my dreams. Fires sweeping through the earth, bodies in the streets, cities turned to dust. Retaliation..."


Check out my amazing band!
An Abstract Illusion
#18
instead of reading the post im gonna have to go and say MAJOR!
just so i dont have to edit every post i make, let me clarify something I CANT TYPE WELL....thanks