#1
me & my family have some freinds coming over and my mom is forcing me to play them comthing on my guitar anyone know a quick cool sounding riff I could play on my acustic, nothing too hard I only have 1-2hours to learn it, thanks!
#5
Is the verse this part.

S S S S S S S S S S S S S S S S
|----15----15----15----15----15----15----15----15-:
|-19----------------------------17----19----------:
|-------19----------------17----------------19----:
|-------------19----17----------------------------:
|-------------------------------------------------:
|-------------------------------------------------:


S S S S S S S S S S S S S S S S
|----15----15----15----15----15----15----15----15-:
|-------------------17----19----------------17----:
|-------------17----------------19----17----------:
|-19----17----------------------------------------:
|-------------------------------------------------:
|-------------------------------------------------:


S S S S S S S S S S S S S S S S
|----15----15----15----15----17-15----15-19-17-15-:
|-19----------------17----19-------19-------------:
|-------19----17----------------------------------:
|-------------------------------------------------:
|-------------------------------------------------:
|-------------------------------------------------:


5/4
|------6-------| |-----5-----| |-----5-----| |-----5-----| |-----5-----|
S S S S S S S S S S S S S S S S S S S S S S S S S S
|----17-15----------------------------------------------------------------------:
|-19-------19-15----17-15-------------------------------------------------------:
|----------------17-------17-14----16-14----------16-14----------16-14----------:
|-------------------------------17-------17-14----------17-14----------17-14----:
|----------------------------------------------17-------------17-------------17-:
|-------------------------------------------------------------------------------:
#8
yeah, my mom makes me do that 2. it sucks lol
"When the power of love overcomes the love of power the world will know peace." - Jimi Hendrix