#1
Anyone know where to find Dan Reeder tabs or willing/able to post some on the site?

Cheers tylerdave
#2
"Well I can play 3 chords on this old, homemade guitar"

and those 3 chords are:
E, A and B7

Play around with the capo and those chords and you should be able to play a bunch of his songs.

Enjoy.
Steve
#3
Hi, I just figured out Havana Burning. Not going to write the full tab here since its just fingerpicking, but heres something:

[key of F]

Dm         Gm
if i had a pistol
C                (lick 1*)
  i could join a revolution
Bdim7           C#dim7  
 just like Che  imagine me
Dm                C      Bb
hunkered down low in the sugar cane
                            F
watching havana burning  ...
 
CHORDS:
Bdim7 (not exactly that, but heres the tab):
e|----------------------------------------|
B|----------------------------------------|
G|--------0------------------------------|
D|--------3------------------------------|
A|--------2-------------------------------|
E|----------------------------------------|

C#dim7 (same as above, just up 2 frets):
e|----------------------------------------|
B|----------------------------------------|
G|--------2------------------------------|
D|--------5------------------------------|
A|--------4------------------------------|
E|----------------------------------------|


*lick 1
e|---------------------------------------------------------------------------|
B|---------------------------------------------------------------------------|
G|----------------5---------------------------------------------------------|
D|--------5-/-7----7-/-5--3-----------------------------------------------|
A|---------------------------------------------------------------------------|
E|---------------------------------------------------------------------------|



Feel free to make corrections.
Last edited by banjer at Feb 7, 2009,
#4
If anyone looks at this i cant seem to get the chords right for "beautiful" Any help would be much appreciated.
#5
Here's how I play "Beautiful" by Dan Reeder. I fingerpick it a little differently each time but this should give you the feel for it.
cheers,
Richard

Dan Reeder “Beautiful”
Capo 5
intro
C/G F/C C/G F/C G


tab

    C/G              F/C          C/G      F/C       G
e----------------------------1------------------------------1--
b-------------1--------------1------------------1-----------0--
g-------------0----------2------------- 0-----2-----------0----
d--------2-------------3---3----------2-----3-----------0------
a-----3----3---------3--------------3-----3-----------2--------
E---3-------------3---------------3-----------------3----------


Verse:

C/G    F/C      C/G       G  [repeat as needed]


Chorus:
“but i am not you…”
F/C        C/G      F/C       G

“sometimes you’re just…”
F/C        C/G      F/C     C/G (final chord)


Capo 5
           C/G                 F/C
e--------------------------------1--------------------------
b----------1---------------------1--------------------------
g--------------------------------2--------------------------
d----------2---------------------3--------------------------
a----------3---------------------3--------------------------
E----------3---------------------x--------------------------
#6
hat about three chords! theres a weird part in there i cant tell what he is playing


also, in tulips on the table, i would really really appreciate it if someone tabbed that out

cant figure out the capo or anything


thanks

jim