#1
Hi There

Got a song and im 90% happy with the solo.

The last part of the solo the rhythm is building up on a F and a G the back to main riff in D.

I need some quick and repetative licks on the F and G to end the solo.

Any one got a good idea?

At the moment im doing

|---------------------------|
|-16p13---------------------|
|-------15p13---------------| x 8
|---------------------------|
|---------------------------|

|---------------------------|
|-18p15---------------------|
|-------17p15---------------| x 8
|---------------------------|
|---------------------------|


Which sounds ok but would like to think of something else
#2
wrong forum. take it to tab talk or whatever it is.

*reported*
O! music: Click (Youtube)


^ Click to see an acoustic arrangement of Ke$ha's 'Your Love is my Drug' - everyone's favourite song.