#2
i believe there is an export function in guitar pro that outputs to txt. you can then upload that or put it in html.
BIG_G
#3
I can export it to PDF... not so sure about HTML...

What instruments do you want taken from it?

Edit - I can export it to .txt and then .html

Why do you want it in .html specifically by the way?
Last edited by bobathon24 at Apr 10, 2008,
#4
i dont really care what specific format its in. to be honest, i dont even really know the difference between .txt and .html and what not. the problem is that ive already used the free trial for guitar pro, and i really dont want to spend sixty bucks to get the full version. i know i might sound like some kind of tightwad, but thats because i probably am. the main thing i want from this song is the solo, and the only other tab on this site doesnt include the solo. im desperate to learn the solo from this song, and i would greatly appreciate your help.
thanks
Last edited by weescotsman20 at Apr 11, 2008,
#5


            ^                  
            |--3-|   |--3--|   
  Q    Q    Q    E   Q     E   
E------------------------------|
B------------------------------|
G--------------------------12--|
D------------7----8--10--------|
A--8----8----x-----------------|
E------------------------------|


   E   Q     H        E   
-------------------------|
-------------------------|
---L--10-----L--------L--|
-------------------------|
-------------------------|
-------------------------|


   E   E   E   E   E   E   E   E   
--10--10--10--10--10--10---L---8--|
--11--11--11--11--11--11---L--10--|
----------------------------------|
----------------------------------|
----------------------------------|
----------------------------------|


   E   Q     Q     Q     E   
---L--10-----8--------------|
---L--11----10----10----10--|
------------------10----10--|
----------------------------|
----------------------------|
----------------------------|


            |---3---|          
  H         E   E   E  E   E   
------------------------------|
--L---------------------------|
--L---------------------------|
-----------10--12--10--8--10--|
------------8---L---L--L---L--|
------------------------------|


               |---3---|          
   Q     Q     E   E   E   E  E   
---------------------------------|
---------------------------------|
---------------------------------|
---L----12----10---L---L---L--L--|
---L----13----12--13--12--10--8--|
---------------------------------|


         |--3--|   |--3--|   |--3--|   
   Q     Q     E   Q     E   Q     E   
--------------------------------------|
--------------------------------------|
--------------------------------------|
------------------10------------------|
---L----12----13--------13--12----13--|
--------------------------------------|


   |--3--|                       
   Q     E   Q     E.   E.   E   
--------------------------------|
--------------------------------|
--------------------------------|
--------------------------------|
--12----13--12---------10-------|
------------------13--------13--|


   H         E   E   E   E   
------------------------13--|
--------------------13------|
----------------14----------|
------------15--------------|
----------------------------|
---L------------------------|


  E    Q     Q.       Q     
-----/17----13~------------|
---------------------13----|
---------------------------|
---------------------------|
---------------------------|
---------------------------|


   |--3--|                          
   Q     E   Q      E   E   E   E   
-----------------------------------|
-----------------------------------|
--14-------------------------------|
--------15-------------------------|
------------15----/15--13--15--13--|
-----------------------------------|


                      v   
   E   Q     H        E   
-------------------------|
-------------------------|
----------------------x--|
----------------------x--|
---L--12--------------x--|
------------13-----------|


   E    E   E   E   E  E   E    E   
-----------------------------------|
-----------------------------------|
--12s--10--10--10--10--------------|
--------------------------10s--12--|
--10s---8---8---8---8--------------|
-----------------------------------|


  E   Q     Q     Q.         E  E  E  E  E  E  E  E   
--------------------------|--------------------------|
--------------------------|--------------------------|
--------------------------|--------------------------|
-----10----10-------------|-----------------0--------|
--------------------------|--------0--1--3-----3-----|
------8-----8----13\------|--1--3--------------------|


  S S S S E  E  E  E  E  E     Q    Q    Q    Q     
----------------------------|-------5---------5----|
----------------------------|-------6---------6----|
----------2--3--2--0--------|-------7---------7----|
----0-2-3-------------3-----|-------7---------7----|
--3-------------------------|--5-------------------|
----------------------------|----------------------|


That should be it.

UG is being a bitch and not letting me post the full thing.
#6
attach it as a .txt file
Rhythm in Jump. Dancing Close to You.

Quote by element4433
Yeah. people, like Lemoninfluence, are hypocrites and should have all their opinions invalidated from here on out.
#8
thanks a lot for the solo tab. its not entirely accurate, but it got me rolling and i was able to figure out how to play it correctly. thanks again, i appreciate it