#4
Sorry this took so long. I'm fairly new to tabbing.


e|-------------------------------------|
B|-------------------------------------|
G|---------12--11--9\----9--11--9--8---|
D|-------------------------------------|
A|-----------------------7------7--6---|
E|-0-NH12------------------------------|

e|-----------------------------------------|
B|-----------------------------------------|
G|------8--8-8---------9--9-9-----------8~-|
D|------8--8-8---------9--9-9------8----8~-|
A|---6--6--6-6------7--7--7-7----6---6--6~-|
E|-7--------------8------------7-----------|


I'm pretty damn sure this is it. Good luck!
D:
Signature.
#5
Quote by Atomic48
Sorry this took so long. I'm fairly new to tabbing.


e|-------------------------------------|
B|-------------------------------------|
G|---------12--11--9\----9--11--9--8---|
D|-------------------------------------|
A|-----------------------7------7--6---|
E|-0-NH12------------------------------|

e|-----------------------------------------|
B|-----------------------------------------|
G|------8--8-8---------9--9-9-----------8~-|
D|------8--8-8---------9--9-9------8----8~-|
A|---6--6--6-6------7--7--7-7----6---6--6~-|
E|-7--------------8------------7-----------|


I'm pretty damn sure this is it. Good luck!


Hey I appreciate the time you put in this!

Although the tab doesn't sound right- the first 5 notes sound perfect, but onward it doesn't match up with the song?
#6
I've tabbed a little bit...


e------10-----------
B-----8----7--------
G--------------9-8-9
D----------------7--
A---7---------------
E--0-------8-8---8--

#7
|-----------------------------------------------------------|
|---------8----7-------5--------4--5------1--0----------|
|------------4----(4)-----4-----------------------2--4---|
|-----------------------------------------------------------|
|------7---------------------------------------------------|
|---0------------------------------------------------------|


I'm not pretty sure bout this tab
Last edited by Liger02 at Apr 11, 2008,