TheCatAndMouse
Registered User
Join date: Apr 2008
71 IQ
#1
E----------------------------------------------------
B----------------------------------------------------
G----------------------------------------------------
D-----7-5-----------------5-------------2----------
A------------7-----------------7---------------------
E-5------------5-3----5------------3-------5-------


Hey guys, Been playing guitar nearly a month or two just to help with my bass playing speed. I came up with a little riff. Rate?
G.Krizzel
Bañanned
Join date: Oct 2006
114 IQ
#2
very nice, but I'd be going more like this:

e--------------------------------------------------------------------
B--------------------------------------------------------------------
G-------------------------------------------------5-7b-7-5--------
D-----7-5-------------------------------7-5-7---------------------
A------------7-5-3h5p3h5p3------------------------------------
E-5---------------------------------5-------------------------------