#1
The solo for Black dog - LZ

|---------|-------------------|---------------------|-----------------------||
|---------|-----------------5-|---------------------|-----------------------||
|---------|-----5b5.5-----7---|-5h7p5-----5b5.5-----|-----------------------||
|-----5-6-|-7----------7------|-------7-7--------7--|-5-7-7---------2-(2)---||
|---7-----|---7---------------|---------------------|-------5-7S3-5-0-(0)---||
|---------|-------------------|---------------------|-----------------------||


Can you add notes within the scales?

Can you just do random note within a scale but your root notes are the same? is that right?
#2
if ti sounds good you can add it, also i think hes using the blues penatonic, which is the minor penatonic with and added key (it can be any key in the scale but certain ones fit best from what ive been told on ug)
#3
Quote by The Minorthreat
The solo for Black dog - LZ



|---------|-------------------|---------------------|-----------------------||
|---------|-----------------5-|---------------------|-----------------------||
|---------|-----5b5.5-----7---|-5h7p5-----5b5.5-----|-----------------------||
|-----5-[B]6[/B]-|-7----------7------|-------7-7--------7--|-5-7-7---------2-(2)---||
|---7-----|---7---------------|---------------------|-------5-7S3-5-0-(0)---||
|---------|-------------------|---------------------|-----------------------||


Can you add notes within the scales?

Can you just do random note within a scale but your root notes are the same? is that right?



no you don't do random notes caertain scale s have certain notes based on intervals

and yes you can add notes within a key based scale they are called accidentals
song stuck in my head today


Last edited by lbc_sublime at Apr 11, 2008,
#4
Quote by F8iscruel
if ti sounds good you can add it, also i think hes using the blues penatonic, which is the minor penatonic with and added key (it can be any key in the scale but certain ones fit best from what ive been told on ug)



the blues scale has the intervals 1 b3 4 b5 5 b7

the added tone is the b5 and is no longer a pent bevcause it now has 6 notes
song stuck in my head today