#1
I just finished a tab in Microsoft Word, but when i preview it, my spaces are gone.
example:
****************************************Feedback (Pitch F)
e|-----------------------------------------------------------------------------|
B|-----------------------------------------------------------------------------|
G|-----------------------------------------------------------------------------|
D|-------------2-------------------2------------------------------------------|
A|----5-5-3-5----3-3------5-5-3-5----3--3-2-3-----2h3-------2h3-/8-|
D|-0-------------------0------------------------5-----3---5------------------|

*pretend these are spaces, it does it here too!
BECOMES

Feedback (Pitch F)
e|----------------------------------------------------------------------------|
B|----------------------------------------------------------------------------|
G|----------------------------------------------------------------------------|
D|-------------2-------------------2-----------------------------------------|
A|----5-5-3-5----3-3------5-5-3-5----3--3-2-3-----2h3-------2h3-/8|
D|-0-------------------0------------------------5-----3---5-----------------|

Am i doing something wrong?
#2

                                                 Feedback (Pitch F)
e|-----------------------------------------------------------------------|
B|-----------------------------------------------------------------------|
G|-----------------------------------------------------------------------|
D|-------------2-------------------2-------------------------------------|
A|----5-5-3-5----3-3------5-5-3-5----3--3-2-3-----2h3-------2h3-/8-------|
D|-0-------------------0------------------------5-----3---5--------------|

Like so? Pro Tip: Use the [code] and [/code] tags
D:
Signature.
#3
How did you do that??! I'm still a little confused, this is the first tab i'm submitting to UG. what do i type?
#4
Don't put any tags on it if you're submitting it to UG's archive.
Copy it into notepad from Word to make sure you've used the correct font, if it looks ok in there then copy it into the submit tab box. The preview seems to cause problems with alignment so I'd make sure you're happy with it before hand and ignore the preview option and just submit it.
You should be able to check whether it shows up ok in the tab acceptance part of the site.
Quote by Mia (Pulp Fiction)
Why do we feel it's necessary to yak about bullsh*t in order to be comfortable?

That's when you know you found somebody special. When you can just shut the f*ck up for a minute, and comfortably share silence.

RateYourMusic