#1
Abit of a stem from the previous thread.

Post the riff if you can!

On a bad/intense/stressful day.
 
q   e q   q   q   e   q   q   q   q   e e 
|---------------------|---------------------|
|---------------------|---------------------|
5o--------------------|--------------------o|
4o--------------------|--------------------o|
|-3-----3---3---3-----|-3---3---3---3-------|
|-----2-------------2-|-----------------2-2-|

  q     q   q   e       q   q   q   e
|---------------------|---------------------|
|---------------------|---------------------|
|---------------------|---------------------|
|---------------------|---------------------|
|-3-----3---3---3-----|-3---3---3---3-------|
|---------------------|---------------------|


On a good day however

--12-------11---------12------11--------|
-----10-12----9--10------10-12---9--10--|
9-------------------9-------------------|
----------------------------------------|
----------------------------------------|
----------------------------------------|


Kudos to who can guess what songs they are!
Last edited by FreedomFighter at Apr 12, 2008,
#2
bone broke by white stripes, for some reason it's not a very famous song, it has one of the best riffs ever
#3
your song is YYZ by Rush
I think Iron Man represents me
Gear:
Epiphone G-400 Ebony
Line-6 UberMetal, EchoPark
Boss RC-2 Loop Station
Traynor YCV50Blue, Bass Mate 25, Guitar Mate 15
#5
On a good day however

Code:

--12-------11---------12------11--------|
-----10-12----9--10------10-12---9--10--|
9-------------------9-------------------|
----------------------------------------|
----------------------------------------|
----------------------------------------|


that sir, might just be xanadu by rush, am i right?
#7
Quote by Stud_Muffin
that sir, might just be xanadu by rush, am i right?
That would be correct

If you guys, could from now on post the tab of the riff as well?
#8
ok.
intro from pride and joy by stevie ray vaughan.

E|-------0-0-0-0-0-|---7-7-7-7-7-7-7--|------0-0-0-0-0-0-0-0-|--------------|
B|--3su5-5-5-5-5-5-|---8-8-8-8-8-8-8--|-3su5-5-5-5-5-5-5-5-5-|--------------|
G|-----------------|---^--------------|----------------------|--0-b2--0-----|
D|-----------------|---|--------------|----------------------|----------2---|
A|-----------------|---|--------------|----------------------|--------------|
E|-----------------|---|--------------|----------------------|--------------|

E|----0----0-----0-----0-|-----0-----0-----0-2-0-|-0-0----0----0-----0------|
B|----0----0-----0-----0-|-----0-----0-----0-2-0-|-0-0----0----0-----0------|
G|----1----1-------------|-----------------1-2-1-|-1-1----------------------|
D|-----------------------|--2--------------------|--------------------------|
A|------------2-----4----|--------------2--------|----------2-----4---------|
E|-0-----3---------------|--------3--------------|------3-------------------|

E|-----0-----0---0-2-0--|-----0-----0-----0-----0-|---0----0------0--2--0---|
B|-----0-----0---0-2-0--|-----2-----2-----2-----2-|---2----2------0--2--0---|
G|---------------1-2-1--|-----2-----2-----2-----2-|-2-2----2---------2------|
D|--2-------------------|--------------2-----4----|-------------2-----------|
A|-------------2--------|--0-----4----------------|------4------------------|
E|--------3-------------|-------------------------|-------------------------|

E|----0------0-------0-----0-|---0-----0-----0---------|-----------------------
B|----0------0-------0-----0-|---0-----0-----0-------3-|------3-----3----------
G|---------------------------|------------------2su4---|-2su4---2su4--2p0------
D|---------------------------|-2-----------------------|------------------2----
A|---------------2------4----|------------2------------|-------------------0h2-
E|-0-----3-------------------|------3------------------|-----------------------

E|---|------------------------------|----0----------------------------------|
B|---|------------------------------|----0--2su3-3-3-3-3-3------------------|
G|---|------------------------------|----1--3su4-4-4-4-4-4-2p0--------------|
D|---|-0-1-2----------------------2-|--------------------------2------------|
A|-2-|--------0-2-1--0h1p0---0------|---------------------------------------|
E|---|---------------------3----3---|-0-------------------------------------|
#10
The Piano melody in the About to Crash section of Six Degrees of Inner Turbulence
Quote by paulefty
Dr. No I LOVE YOUR AVATAR!