BulletFrost
Bass is ez ololol
Join date: Jul 2007
603 IQ
#1
Its the intro for the song im writing, which is so far called STC.
Legend- /=slide, ~=hold per beat (ex-~~~ 3 beats)

G-------9--7~ 6~--6/4/6~~--------------------
D----7-0--0---------------------7~ 7/9/7~~~~
A 9--------------------------------------------------
E----------------------------------------------------

G---------9-11---------------------------------------
D---11---0--0--11--11h9p11~~~---------------
A-9-------------------------------------12--9~~~~
E------------------------------------------------------

Play it nice and easy, it is a slow paced song.
You stole my Overture
Last edited by BulletFrost at Apr 13, 2008,
Its_Rock77
Anthony Green Fanboy <3
Join date: Jul 2007
1,501 IQ
#3
sounded cool the way I played it though I agree with bloodshed.
...Nothing you've ever...
...Planned on ever turned out...
...The way you planned...


...You're still disappointing them...