#1
Can someone PLEASE tab the main flute melody part of Hustle by Van McCoy...Just the main riff that comes up after the "DO THE HUSTLE" part. HELP WOULD BE MUCH APPRECIATED

http://youtube.com/watch?v=9hJDN_jF2t0

And Yes I know How lame the song is
My gear:
Black Fender Mexican Strat (w. red moto pickguard)
Laney Hardcore MXD65
Dunlop Crybaby Wah
Sobbat Fuzz Breaker
Last edited by Lord_Ramone at Apr 13, 2008,
#2
done!



e---------------------8------------------------
B-10-8-10-8-10-10-8-10-----------------------8-
G-----------------------10-9-10-9-10-10-9-10---
D----------------------------------------------
A----------------------------------------------
E---------------------------------------------- twice, then;

e-8-10-8-10-8-8-10-8-10--8-10-8-10-8-8-10-8-10-

#3
Quote by willguitarist
done!



e---------------------8------------------------
B-10-8-10-8-10-10-8-10-----------------------8-
G-----------------------10-9-10-9-10-10-9-10---
D----------------------------------------------
A----------------------------------------------
E---------------------------------------------- twice, then;

e-8-10-8-10-8-8-10-8-10--8-10-8-10-8-8-10-8-10-



YOU ARE HANDS DOWN MY FAVOURITE PERSON ALIVE EVER
My gear:
Black Fender Mexican Strat (w. red moto pickguard)
Laney Hardcore MXD65
Dunlop Crybaby Wah
Sobbat Fuzz Breaker