#1
Ok, I was looking at some tabs of this song (By Muse, for those who don't know) that aren't guitar pro etc. and they suggest that the intro is:
Intro
E|----------------------------|
B|----------------------------|
G|----------------------------|
D|----------------------------| x3
A|----10b----------10b--------|
E|-0------0--0-0-0-----0--0-0-|

E|--------------------------------------|
B|--------------------------------------|
G|------------------------2(4)2-0h2p0---|
D|------------------------------------2-|
A|----10b----------10b------------------|
E|-0------0--0-0-0-----0----------------|


Anyway, I believe (not sure) that this is more accurate:

e|-----------------|
B|-----------------|
G|-----------------|
D|-----5-----------|
A|--------7--------|
E|-0---------------|

e|------------------------------------------|
B|------------------------------------------|
G|------------------------------------------|
D|-----------5----------------------5-------|
A|----------------7----7-7------------7-7---|
E|-0-0-------------------------0------------|

e|------------------------------------------|
B|------------------------------------------|
G|------------------------------------------|
D|-----5----------------------5-------------|  X2
A|--------7----7-7---------------7-7--------|
E|---0-------------------------0------------|


e|-------------------------------------------|
B|-------------------------------------------|
G|--------------------2b2--0h2p0-------------|
D|--------5-----------------------2----------|
A|-----------7-------------------------------|
E|----0--------------------------------------|




Now if this is right then there is still one problem - It is only the intro and I can't do the rest - because my guitar teacher wrote this (fine about me posting this) and I can't tab songs because I haven't played enough and intro's aren't supposed to be posted (that often) says the rules.

So should I submit?

tl;dr:
1) I think I have the correct intro for this song.
2) I can't finish it.
3)Should I submit.
Quote by Kensai
Ovenman, your contraptions make women's

clothes evaporate.
____________________


I WANT THE TWOOTH!

____________________________

Quote by aaciseric
That's far too clever to be posted in the Pit.
#2
^Since we have high star voted full versions for this song in this page,You shouldn't submit the intro,because it won't be accepted.

But feel free to post this intro in one of their comments as correction.
Quote by zappp
emad I'm gonna ban you, seriously.
#3
Quote by emad
^Since we have high star voted full versions for this song in this page,You shouldn't submit the intro,because it won't be accepted.

But feel free to post this intro in one of their comments as correction.


Ok, thanks.
Quote by Kensai
Ovenman, your contraptions make women's

clothes evaporate.
____________________


I WANT THE TWOOTH!

____________________________

Quote by aaciseric
That's far too clever to be posted in the Pit.