#1
I'm gonna feel like and idiot, but I'm having alot of trouble playing the intro to Take This Life by In Flames. What do you guys suggest? The temp os relatively fast around 235 and all these are eighth notes. All the "0"'s are palm muted.

INTRO
|------------------------------------------------------------|
|------------------------------------------------------------|
|------------------------------------------------------------|
|------------------------------------------------------------|
|---7---7---7---7---7---7---7---7---7---7---7h10p7-|
|-0---0---0---0---0---0---0---0---0---0---0-----------|

|---------------------------------------|
|---------------------------------------|
|---------------------------------------|
|---------------------------------------|
|---6---6---6---6---6---5---5---5--|
|-0---0---0---0---0---0---0---0----|
Quote by Green RATM Day

Electric - you plug it into a power outlet in the wall and the music comes from little speakers in the guitar.

Quote by The Raven
^ Bugger! You win this time Dark Ra - Hey! Thats partially my name dammit! I challenge you... to a gentleman's dual!

All My Equipment
#3
^^^^That will help.
Also, take it slowly. Start playing with a metronome at 160, then move up by 10 or 15 bpm when you feel comfortable.
Eventually you will realize it isn't too difficult.
#4
cool. thanks guys.
Quote by Green RATM Day

Electric - you plug it into a power outlet in the wall and the music comes from little speakers in the guitar.

Quote by The Raven
^ Bugger! You win this time Dark Ra - Hey! Thats partially my name dammit! I challenge you... to a gentleman's dual!

All My Equipment