#1
this is probably been done 1000 times but i cant find a damm answers in all the other threads


  S  S   S  S  S   E    S   E     S  S  S  S 
-----------12--------------------12----------
--------12----15b-15b--15b-15b~-----15-12----
----14b-----------------------------------14-
---------------------------------------------
---------------------------------------------
-------------------------------------------


when he does the 15 bends does he go back to the original note then bend again then go to original note then bend or does he bend once keep it bend and hit same 4 times? i tried listening but is too quick for me to figure out



E Q. S S S S S S S S
-----------------------------|
-----------------------------|
---------------7---7---7---7-|
-----------------------------|
-----4~----------------------|
--0--------------------------|


S E. Q S S S S Q
--------------------------------|
------------------8-------------|
--L-7b~---L----7b---7b---/9~----|
--------------------------------|
-----------------------0--------|
--------------------------------|


the other question is when he starts doing the 77777 part does he play itl ike staccato like quickly take finger then hitting 7 then taking finger thne hitting 7 or is it because he plays it on triplets that sounds staccato like

question is basically does he lift the fingers to achieve that sound?

any help is appreciated
my guitar stuff:
ESP JH-600
ValveKing 112
DigiTech Whammy Pedal
Taylor 314CE
Dunlop SW-95 Slash Wah Pedal
Cordoba C7 Nylon String Acoustic Guitar
Metal muff
Fender American Deluxe Stratocaster Ash
#2
1: Bend multiple times

2:yes it is like staccato
Gibson SG Standard
Ibanez S2170FB
Peavey JSX
Marshall 1960A
TEXAS A&M
#3
1: Bend multiple times


by bend multiple times you mean start from 15 the raise pitch then start from 15 then raise pitch or keep the note bend and keep striking it?


2:yes it is like staccato


i dont think i phrase my question the right way

what i mean is when he plays the solo does he lift the fingers to produce the staccato feel like to that part or is it the rhytmn that he plays it that makes it sound like that and keeps finger on 7 ?
my guitar stuff:
ESP JH-600
ValveKing 112
DigiTech Whammy Pedal
Taylor 314CE
Dunlop SW-95 Slash Wah Pedal
Cordoba C7 Nylon String Acoustic Guitar
Metal muff
Fender American Deluxe Stratocaster Ash
#4
1. yea, raises it each time

2. he makes it staccato sounding by raising his finger after every pick
Gibson SG Standard
Ibanez S2170FB
Peavey JSX
Marshall 1960A
TEXAS A&M