#1
I heard this song on the radio, and I didn't know what it was ,but I think I figured it out

E
B
G|-E-E--E---Q--------------|E-E-E-E-E-E--Q-----E-E-E-E-E-E-Q
D|---------8---5----------------|8--7--5--8--7--5---------7-8-7-5--------5|
A|-5--8-------------------------|---------------------8------------------8--5---|
E

E= Eighth
Q= Quarter note

oh yea, also, theres something in the chorus that goes like, "heads up everybody", or something up everybody, IDK the words after though

and the thing above is a guitar break, and the last part is repeated a couple times
Last edited by eltyr18 at Apr 14, 2008,
#3
Quote by Mathamology
Chromeo, "Needy Girl"?


IDK, sorry I was trying to fix the tab up as best as I could, but my mom thinks Van Halen, but I say she was wrong, but I'll look it up
#5
Quote by Slash_HuDsOn
I'd help you but I'm from Ottawa ..............you guys better win the cup this year


yea, sorry man
#6
Chromeo, "Needy Girl"?


isnt that:

e----------------------
b-----------------------
g-----------------10--
d-10-10-10h12---12
a------------------------
e------------------------

?
#7
it's not needy girl, its heavier, notice I said my mom thought it was Van Halen
#8
^ actually, its

e-----------------------
b-----------------------
g-----------------------
d-----3-3-3h5-8-5~
a-3h5-----------------
e-----------------------

EDIT:
Quote by eltyr18
it's not needy girl, its heavier, notice I said my mom thought it was Van Halen


Yeah, you said that after your first post. That's all that struck me when I played it though
Last edited by Mathamology at Apr 14, 2008,
#9
Quote by Mathamology
^ actually, its

e-----------------------
b-----------------------
g-----------------------
d-----3-3-3h5-8-5~
a-3h5-----------------
e-----------------------

EDIT:

Yeah, you said that after your first post. That's all that stuck me when I played it though


it's cool, don't worry
#11
my mom was wrong, we found out it was after a Van Halen song, but if I remember correctly, the chorus was something like "Wake up everybody there is something to see" then something after that.