#1
The rules are simple, I post a piece of music, the next person posts a piece (try to make it fit please. ) the next does as well etc.

If you want to add vocals/words just add them above your tab/sheet/chord progression.

I'll start with the intro:

S E E S E Q Q
--------------------------|
-5-5--5-----5--8------|
-----------5-------------|
-----------------------5-|
--------------------------|
--------------------------|
#2
E E E E E E E E E E E E E E E E
|-------------15----14-------|-------------15----14----|
|----15-----------------------|----15-------------------|
|-------14-12----14----14-|-------14-12----14----14-|
|-12--------------------------|-12----------------------|
|------------------------------|-------------------------|
|------------------------------|-------------------------|
Hurp De Durp
#3
Quote by Symphonic_Chaos
E E E E E E E E E E E E E E E E
|-------------15----14-------|-------------15----14----|
|----15-----------------------|----15-------------------|
|-------14-12----14----14-|-------14-12----14----14-|
|-12--------------------------|-12----------------------|
|------------------------------|-------------------------|
|------------------------------|-------------------------|


WHOA-OH-OH SWEET CHILD OF MINE!

Yes, you're a sly bugger, but you can't fool me.
#4
Quote by frankv
The rules are simple, I post a piece of music, the next person posts a piece (try to make it fit please. ) the next does as well etc.

If you want to add vocals/words just add them above your tab/sheet/chord progression.

I'll start with the intro:

S E E S E Q Q
--------------------------|
-5-5--5-----5--8------|
-----------5-------------|
-----------------------5-|
--------------------------|
--------------------------|
hey it's mario
Guitars :
Fender American Stratocaster
Jackson RR3
Ibanez S470
Epiphone Les Paul
#5
E|-----------------------------------------------------------------------||
B|-----------------------0-1-3-0-1---0-------------------------------||
G|-4-5-7-4-5---4-------------------2---0-2-------------------------||
D|-----------7---5-7-----------------------------------4---4---------||
A|-----------------------------------------------5-5-7---5---7-------||
E|---------------------------------------------5------------------------||
#6
E|-----------------------------------------------------------------------||
B------------------------------------------------------------------------||
G|-----------------------------------------------------------------------||
D|------------------0---7-----9----------------------------------------||
A|-----------------------------------7--6--5-----3---------------------||
E|-----------5------------------------------------------3------5--------||
#7
E|--------------------------------------------------------||
B|--------------------------------------------------------||
G|--------------------------------------------------------||
D|--------------------------------------------------------||
A|22222222222222222222522222222222222||
E|00000000000000000000300000000000000||
#9
E-------5-7-----7-|-8-----8-2-----2-|-0---------0-----|-----------------|
B-----5-----5-----|---5-------3-----|---1---1-----1---|-0-1-1-----------|
G---5---------5---|-----5-------2---|-----2---------2-|-0-2-2-----------|
D-7-------6-------|-5-------4-------|-3---------------|-----------------|
A-----------------|-----------------|-----------------|-2-0-0---0--/8-7-|
E-----------------|-----------------|-----------------|-----------------|
PICTURE YOURSELF IN A BOAT ON A RIVER
WITH TANGERINE TREES AND MARMALADE SKIES...
#10

      T  T  T  T  T  T  T  T  T  T  T  T  T  T  T  T  T 
E||--20-19-17-15----17-15-------15----------------15-17-
B||--------------19-------19-17----19-17-15-17-19-------
G||-----------------------------------------------------
D||-----------------------------------------------------
A||-----------------------------------------------------
E||-----------------------------------------------------


            13 13 13 13 13 13 13 13 13 13 13 13 13      
   T  T  T  S  S  S  S  S  S  S  S  S  S  S  S  S  T  T 
--15----------------15-17----15-17-19-15-17-19-20-20-19-
-----19-17-15-17-19-------19----------------------------
--------------------------------------------------------
--------------------------------------------------------
--------------------------------------------------------
--------------------------------------------------------


                                           
                           |-----13----|  |---------13--
   T  T  T  T  T  T  T  T  S  S  S  S  S  S  S          
--19-17-20-17-19-17-15-19-15-19-15-17-15---------------1
-----------------------------------------19-17----------
--------------------------------------------------------
--------------------------------------------------------
--------------------------------------------------------
--------------------------------------------------------

            
   13         13 13 13 13 13 13         13 1313 13 13  1
   S          S  S  S  S  S  S          S  S S  S  S   S
--12---------14-12-10----12-10---------12-10-8----12S-11
----------------------13-----------------------12-------
--------------------------------------------------------
--------------------------------------------------------
--------------------------------------------------------
--------------------------------------------------------


Duration Legend

S - 16th
T - 32nd
X - 64th
. - note dotted
|-n-|  - n-tuplets

Yeah!
#11
      E  E  E  E  Q    E  E     E  E  E  E  Q    Q     
E||--------------------------|------------------------|
B||--------------------------|------------------------|
G||*--------3-----5----x-----|-----3-----6--5----x----|
D||*--5-----3-----5-------5--|-----3-----6--5---------|
A||---5-------------------5--|------------------------|
E||--------------------------|------------------------|


  E  E  E  E  Q    E  E     E  Q.     Q    Q         E  E  E  E  Q    E  E   
-------------------------|-----------------------||-------------------------|
-------------------------|-----------------------||-------------------------|
--------3-----5----x--3--|-----------------x----*||--------3-----5----x-----|
--5-----3-----5-------3--|-----5------L---------*||--5-----3-----5-------5--|
--5----------------------|-----5------L----------||--5-------------------5--|
-------------------------|-----------------------||-------------------------|


And so on...
#12

Track 1
     E  E  E  Q.     E  E  E  Q.        E  E  E  Q.     E  E  E  E  E  E    
E||----------------------------------|------------------0-----------3-----||
B||-----------8---------------6------|--------0------------0-----------4--||
G||--------7---------------5---------|-----------0------------0--5--------||
D||-----5---------------3------------|-----2------------------------------||
A||--5---------------3---------------|--2---------------------------------||
E||----------------------------------|------------------------------------||
Quote by juan Andrés

Sorry awful Anglish.
#13

E-14----------------------------|14-------------17------------|
B--------14--------------14-----|-------14-------------17-----|
G---11-11--11-11-14-11-11--11-11|--11-11--11--11--14-14--14-14|
D-------------------------------|-----------------------------|
A-------------------------------|-----------------------------|
E-------------------------------|-----------------------------|

E-14----------------------------|14-------------12--------|
B--------14--------------14-----|-------14-----------12---|
G---11-11--11-11-14-11-11--11-11|--11-11--11--11--9-9--9-9|
D-------------------------------|-------------------------|
A-------------------------------|-------------------------|
E-------------------------------|-------------------------|

E-14----------------------------|14-------------17------------|
B--------14--------------14-----|-------14-------------17-----|
G---11-11--11-11-14-11-11--11-11|--11-11--11--11--14-14--14-14|
D-------------------------------|-----------------------------|
A-------------------------------|-----------------------------|
E-------------------------------|-----------------------------|

E-12--------------------|10--------------------|
B------12----------12---|-----10----------10---|
G---9-9--9-9-13-9-9--9-9|--7-7--7-7-11-7-7--7-7|
D-----------------------|----------------------|
A-----------------------|----------------------|
E-----------------------|----------------------|


Oh, and it's all in triplets.
#14
Track 2
      E   Q.      S  S  S Q    S  
E||------------------------------|
B||--10--12------10-12-10-9------|
G||------------------------------|
D||------------------------------|
A||------------------------------|
E||------------------------------|


   PM    PM                  
   Q     Q    Q     Q        
--------------8b----Lpbr----|
--10----12------------------|
----------------------------|
----------------------------|
----------------------------|
----------------------------|


  Q    E  H        E   
--8----7--8--------L--|
----------------------|
----------------------|
----------------------|
----------------------|
----------------------|


   PM    PM                  
   Q     Q    Q     Q        
--------------8b----Lpbr----|
--10----12------------------|
----------------------------|
----------------------------|
----------------------------|
----------------------------|


  W                   W                 
-------------------|-------------------|
--7----------------|-------------------|
-------------------|-------------------|
-------------------|-------------------|
-------------------|-------------------|
-------------------|-------------------|


  S S  H.             E   
----9-12b-------------L--|
--7----------------------|
-------------------------|
-------------------------|
-------------------------|
-------------------------|


   E    E   E   E    E   E   Q      
--12b--12b-----12b--12b-----14b----|
-----------------------------------|
-----------------------------------|
-----------------------------------|
-----------------------------------|
-----------------------------------|


  W                   H        H            
--L----------------|--L--------Lpbr--------|
-------------------|-----------------------|
-------------------|-----------------------|
-------------------|-----------------------|
-------------------|-----------------------|
-------------------|-----------------------|


  W                 
-------------------|
-------------------|
-------------------|
-------------------|
-------------------|
-------------------|


   S  S  S  S  S  S  S  S  Q.      E   
--------16-------16-------17------14--|
-----17-------17-------17-------------|
--16-------16-------16----------------|
--------------------------------------|
--------------------------------------|
--------------------------------------|


   W                   W                 
--------------------|-------------------|
--17----------------|-------------------|
--------------------|-------------------|
--------------------|-------------------|
--------------------|-------------------|
--------------------|-------------------|


  W                   W                  
-------------------|-------------------||
-------------------|-------------------||
--4----------------|-------------------||
-------------------|--2----------------||
-------------------|-------------------||
-------------------|-------------------||


It is the emotional slow solo part.

/me proves that he sucks at music