#1
This is a song on bass ive been working on. i think its good, but im only 13

its drop d

Intro pt 1

|-----------------------------------------------------------------------|
|-----------------------------------------------------------------------|
|-----------------------------------------------------------------------|
|--0-3-0-3/5-5-0-------------------0-3-0-3/5-5-0----------------|


|---------------------------------------------------------|
|---------------------------------------------------------|
|---------------------------------------------------------|
|----0-3-0-3/5-5-5-------------------0-3-0-3/5-5-0|


|-----------------------------------------------------------------------------------------|
|-----------------------------------------------------------------------------------------|
|-----------------------------------------------------------------------------------------|
|----0-3-0-3/5-5-7-------------------0--3--0--3/5--0------------------------------|

Intro pt.2/chorus {this part is played legato}
|---------------------------------------|
|---------------------------------------|
|-------------------------------------3|
|0-0-0-0-0-0--0-0-3-3-3-3-3-5--| X3

|---------------------------------------|
|---------------------------------------|
|----------------------------------3-5-|
|0-0-0-0-0-0-0-0-3-3-3-3-3-5----|

some sort of transition
|-----------------|
|-----------------|
|-----------------|
|0----------------|

verse (first 2 times palm-muted, last two open ALSO played legato)

|----------------------------|
|----------------------------|
|----------------------------|
|0-03-35-5------0531---| X4

bridge

|-------------------------------------------------------------------------------------------------------------|
|-------------------------------------------------------------------------------------------------------------|
|------------5-------------------5--------------------5-------------------5---------------------------------|
|-0-0-0-0----0-0-0-0-0-0-0----0-0-0-3-3-3-3----3-3-3-3-3-3-3----3-3-3------------------------|


|-------------------------------------------------------------------------------------------------------------|
|-------------------------------------------------------------------------------------------------------------|
|----------5---------------------5----------------5---------------------------------------------------------|
|5-5-5-5---5-5-5-5-5-5-5-5---5-5-0-0-0-0---0-0-0-0-0-0-0-0-5-0-0-----------------------------|

This song's order:

intro pt. 1

intro pt. 2

verse

chorus

verse

chorus

bridge

chorus X2


thats it, hope u liked it and again, id like some feedback if ud be nice enough to do that.


also, in the power tab, there's lead guitar in the chorus and bridge that i don't know so i didn't put it in.

http://www.youtube.com/watch?v=tQvkT6uXlcI --- its in this youtube video
Attachments:
longing.zip
Last edited by westchesterbass at Apr 23, 2008,