#1
Tell me what you think, it's a van halen scale

--15-14-12------14-12------------12-------------------------------
---------------15-----------15-14--------15-14-12--15-14-12-
-------------------------------------------------------------------------
-------------------------------------------------------------------------
-------------------------------------------------------------------------
-------------------------------------------------------------------------

-------------------------------------------------------------------------
------14-12-----------12---------------------------------------------
--15----------15-14-------15-14-12---15-14-12---------------
-------------------------------------------------------------------------
-------------------------------------------------------------------------
-------------------------------------------------------------------------

-------------------------------------------------------------------------
-------------------------------------------------------------------------
------14-12-----------12--------------------------------------------
--15----------15-14-------15-14-12---15-14-12---------------
-------------------------------------------------------------------------
-------------------------------------------------------------------------

-------------------------------------------------------------------------
-------------------------------------------------------------------------
-------------------------------------------------------------------------
------14--12------------12-------------------------------------------
--15-----------15--14--------15-14-12---15-14-12-----------
------------------------------------------------------------------------

-------------------------------------------------------------------------
-------------------------------------------------------------------------
-------------------------------------------------------------------------
-------------------------------------------------------------------------
------14-12------------12---------------------------------------------
--15----------15--14--------15-14-12---15-14-12-12~------
Yes my name is Tom Petty.

GEAR:
Ibanez RG350DX
Dean Razorback D
(crappy)RED Marshall Mg100hdfx Halfstack
Digitech Death Metal Pedal
#2
no.
Originally posted by primusfan
When you crank up the gain to 10 and switch to the lead channel, it actually sounds like you are unjustifiably bombing an innocent foreign land.


╠═══════╬═══════╣
τλε τρπ βπστλεπλσσδ
╠═══════╬═══════╣
#3
Quote by InanezGuitars44
no.

Why?
Yes my name is Tom Petty.

GEAR:
Ibanez RG350DX
Dean Razorback D
(crappy)RED Marshall Mg100hdfx Halfstack
Digitech Death Metal Pedal
#5
it's out of a guitar book i have and it's "used by EVH himself", on the "popular scales" page. So the book is wrong??
Yes my name is Tom Petty.

GEAR:
Ibanez RG350DX
Dean Razorback D
(crappy)RED Marshall Mg100hdfx Halfstack
Digitech Death Metal Pedal
#6
Yes the book is wrong, it's not a scale and we're not ****ing with you... maybe.
Let's blow this job
#7
wow, you guys are all so kind.
Yes my name is Tom Petty.

GEAR:
Ibanez RG350DX
Dean Razorback D
(crappy)RED Marshall Mg100hdfx Halfstack
Digitech Death Metal Pedal
#8
Quote by tommyp484
it's out of a guitar book i have and it's "used by EVH himself", on the "popular scales" page. So the book is wrong??


Unless you tabbed it out wrong, or it's in a different tuning that you didn't specify, no, it's not a scale. For it to be a scale, the pattern would have to repeat after every octave, and it doesn't.