#1
LEARN THIS WITH A FREIND/YOUR BAND

If your looking for a song to bring your skills up while having fun THIS IS IT!!!
Dead provides easy parts and hard parts that challenge your picking hand and your fingering hand, until you master it.
UG didn't accept this tab for some reason, and in my opinion it is the best you have access to so enjoy!

And if you don't have the song, it's on my playlist on my profile page.


-----------------------------------------------------------------------------
-------------------------------------DEAD!-----------------------------------
-----------------------------------------------------------------------------
tabbed by bloodchair


Guitars:

[1] Frank Iero [Rhythm]
[2] Ray Toro [Lead]


__________________Intro:__________________

[1]

e|-------------------|
B|-------------------|
G|-------------------|
D|-------------------|
A|---5555555\45555---|
E|---3333333\23333---|

[1] Played while solo is being played

e|--------------------------------------|
B|--------------------------------------|
G|--------------------------------------|
D|-----------------------44442222222255555555---|
A|---55555555\44422222222222233333333---|
E|---33333333\222------00000000-----------|

[2] Intro solo

e|------------------------------------------------------17--15-17-15-17--------------------------------
B|---13-15-15-15-15-15-12------17v--15-12--------------------------15-17-17-17--12-13-15-12-13-15-
G|-------------------------------12v-----------------------------------------------------------

[2] Continued...

e|---17---12-14-12-14-------------------|--------------------------------------|
B|---------------------------12-17-17-17-|---12-15-12-10-12-10--7--8--7--8--0---|
G|--------------------------------------------|--------------------------------------|

_____________________Verse 1_________________

[1]

e|-----------------------------------------------------------------------------|
B|-----------------------------------------------------------------------------|
G|-----------------------------------------------------------------------------|
D|----------------------44442222222255555555--------------------------44442222222255555555---|
A|---55555555\44422222222222233333333--5----5----5----5\44422222222222233333333---|
E|---33333333\222------00000000-------------3-3-3-3-3-3-3-3\222------00000000-----------|

"And if your heart stops beating..."

[2] This bit is a little confusing, you have to listen carefull to see where the parts fit in

e|------------------------------------------------------------
B|------------------------------------------------------------
G|---12------12--11-9--11-----9--999999-11-----12-12-12-12\---
D|---x--------x--x--x--x------x--xxxxxx-x-------x-x--x--x-----
A|---10------10---9--7--9------7--777777--9------10-10-10-10\---
E|------------------------------------------------------------

e|----------------------------------
B|----------------------------------
G|---12--11-9--11-----9--999999-11--
D|----x--x--x--x------x--xxxxxx-x---
A|---10---9--7--9------7--777777-9---
E|----------------------------------


_________________PRE-CHORUS______________


[1]

e|------------------------|
B|------------------------|
G|------------5~-----7~-----|
D|---7~-----5~-----7~-----|
A|---7~-----3~-----5~-----|
E|---5~-------------------|

"Your life can't wait, and your heart can't take this..."

[2]

e|-----------------------------------------|
B|-----------------------------------------|
G|----------------------------------7-4------------|
D|---7v-9-7-5-7v-9-7-5-7v-9--------7-4-5v-0---|
A|-----------------------------------------|
E|-----------------------------------------|


___________________CHORUS_______________

[1]

e|--------------------------------------------------|
B|--------------------------------------------------|
G|---------------------444444444445555555555577777777777---|
D|---55555555555444444444445555555555577777777777---|
A|---55555555555222222222223333333333355555555555---|
E|---33333333333------------------------------------| x2

"Have you heard the news that you're dead..."

[2]

e|---------------------------------------------------------------|
B|---------------------------------------------------------------|
G|---11/12-12-12-12-12-12-12-12-11-11-11-11-11-11-11-11-11-11----|
D|----x--x--x--x--x--x--x--x--x--x--x--x--x--x--x--x--x--x--x----|
A|----9/10-10-10-10-10-10-10-10--9--9--9--9--9--9--9--9--9--9----|
E|---------------------------------------------------------------|

[2] Continued...

e|------------------------------------------------------------------|
B|------------------------------------------------------------------|
G|---141414141414141212121212121216161616161616161414141414141414---|
D|----x-x-x-x-x-x-x-x-x-x-x-x-x-x-x-x-x-x-x-x-x-x-x-x-x-x-x-x-x-x---|
A|---121212121212121010101010101014141414141414141212121212121212---|
E|------------------------------------------------------------------| x2


___________VERSE 2_____________


[1]

e|------------------------------------------------------------------------------------------|
B|------------------------------------------------------------------------------------------|
G|------------------------------------------------------------------------------------------|
D|--------------------------------------------44442222222255555555-----------------------------44442222222255555555---|
A|---5555555\4555555555555\44422222222222233333333--5----5----5----5\44422222222222233333333---|
E|---3333333\2333333333333\222-------00000000------------3-3-3-3-3-3-3-3\222--------00000000-----------|

[2]

e|---7-7-7-7---------------7-7-7-7------------------------------------7-7-7-7------------
B|---8-8-8-8-77777777-8-8-8-8-13-13-13-13-13-13-13-13--8-8-8-8-77777777---
G|---7-7-7-7-77777777-7-7-7-7-12-12-12-12-12-12-12-12--7-7-7-7-77777777---
D|------------------------------------------------------------------------
A|------------------------------------------------------------------------
E|------------------------------------------------------------------------

[2] Continued...

e|---7-7-7-77---------------------|
B|---8-8-8-88---10-7-10---10-7----|
G|---7-7-7-77-7---------7---------|
D|--------------------------------|
A|--------------------------------|
E|--------------------------------|


________________VERSE 3_____________

[2]
e|---------------------|
B|---------------------|
G|---------------------|
D|---9-10--(x8)-/---| Slide into solo
A|---------------------|
E|---------------------|
__________________SOLO_________________

[1]

e|--------------------------------------------------|
B|--------------------------------------------------|
G|---------------------444444444445555555555577777777777---|
D|---55555555555444444444445555555555577777777777---|
A|---55555555555222222222223333333333355555555555---|
E|---33333333333------------------------------------| x2

[2]

e|-------------------------------------------5---------------------------------
B|-------------------------88------------------7-------------------------------
G|------4-5-7-9--757v--------------------------7-5------------7-5-75757575------
D|---5~----------------------565353020------------7-5-4v--------------------
A|--------------------------------------------2v-----------------------------------
E|----------------------------------------------------------------------

e|--------------8------------------15--|-17-15-----19-15----|-17-15---20-15-----|
B|-----------8---8---------------------|----------15---------15--|-------15------15--|
G|---5/7-9----------5/7-9-7-9------|------------------------------|-------------------|
D|--------------------------------------|------------------------------|-------------------|
A|--------------------------------------|------------------------------|-------------------|
E|--------------------------------------|---------------------------(x2)|---------------(x3)|

e|---17-15----20-17-----------|
B|---------15-------20v-20s---|
G|----------------------------|

____________________END______________

[1]

e|--------------------------------------------------|
B|--------------------------------------------------|
G|---------------------444444444445555555555577777777777---|
D|---55555555555444444444445555555555577777777777---|
A|---55555555555222222222223333333333355555555555---|
E|---33333333333------------------------------------| x4

[2] Plays mostly with the vocals (you don't have to play octaves)

e|----------------------------------------------------|
B|----------------------------------------------------|
G|---12-9-7-12--9-7-12-9-7-12--9-7-12-9-7-12--7-9-7~--|
D|----x-x-x--x--x-x--x-x-x--x--x-x--x-x-x--x--x-x-x~--|
A|---10-7-5-10--7-5-10-7-5-10--7-5-10-7-5-10--5-7-5~--|
E|----------------------------------------------------| x4

[1]

e|--------------0-------|
B|--------------0-------|
G|----------------------|
D|----------------------|
A|---5555555---5---|
E|---3333333---3---|

[2]

e|-----------------|
B|-----------------|
G|-----------------|
D|---5---------5---|
A|---5---------5---|
E|---3---------3---|


Song structure:

Intro
Verse 1
Pre-chorus
Chorus
Verse 2
Pre-chorus
Chorus
Verse 3
Solo
End


ANY QUESTIONS!?!
Contact me 'bloodchair' and I'll see how I can help.