#1
Hi I'm learning to play the electric guitar. I'm looking for a beginning or easy guitar song book that i can use for practice and fun. I like hard rock,heavy metal,mellow rock,some soul & blues. I would appreaciate any recommendation.
#3
Are you "this much" beginner?



Come As You Are by Nirvana

|-------||---------------|---------------||
|-------||---------------|---------------||
|-------||*--------------|--------------*||
|-------||*--------------|--------------*||
|-------||---0---0-------|--2-----2------||
|-0-0-1-||-2---2---2-2-1-|0---0-0---0-1--||

Seven Nation Army by The White Stripes

||---------------------------|------------------------------||
||---------------------------|------------------------------||
||*--------0-----------------|--------0--------------------*||
||*-2----2---2---0-----------|-2----2---2---0-----0--------*||
||-------------------3---2---|------------------3---3---2---||
||---------------------------|------------------------------||

Daytripper by The Beatles

||-------------------------------||
||-------------------------------||
||*-----------------------------*||
||*------------2-0-----4----0-2-*||
||-----------2-------2----2------||
||--0----3-4---------------------||

La Bamba by Ritchie Vallens

|---------||--------------------------------------||
|---------||--------------------------------------||
|---------||*-------0-----2-0---0----------------*||
|---------||*-----2---3-------------0---3-3-2-0--*||
|-----0-2-||--3-----------------------------------||
|---3-----||--------------------------------------||

Iron Man by Black Sabbath

-|-------------------------------------|
-|-------------------------------------|
-|------------------0---0---0----------|
-|----------0-0-2-2---4---4---0-0-2-2--|
-|-2-----------------------------------|
-|-------------------------------------|


Pretty Woman by Roy Orbison

-|--------------|---------------------|
-|--------------|---------------------|
-|--------------|---------------------|
-|-----------0--|-------------0-4-2-0-|
-|---------2----|---------2-----------|
-|-0-0-4--------|-0-0-4---------------|

Smoke On The Water by Deep Purple

-|---------|-------------|-------------|
-|---------|-------------|-------------|
-|---------|-------------|-------------|
-|---------|-------------|-------------|
-|-------0-|--------1-0--|------0------|
-|--0-3----|-0-3---------|-0-3-----3-0-|

Sunshine of Your Love by Eric Clapton of Cream

-|---------------------------|
-|---------------------------|
-|-----------2-1-0-----------|
-|-0-0----0---------0-3-0----|
-|------3--------------------|
-|---------------------------|

And for the more adventurous beginners

Crazy Train by Ozzy Osbourne

-|-------------------------------------|
-|-------------------------------------|
-|-------------------------------------|
-|-------------------------------------|
-|-----4---5---4---2-0---0--2-0------|
-|-2-2---2---2---2-----4---------4-0-|

#4
don't know yet how to read tabs but I read notes and chords. I'll learn how to read tabs.
#6
The song book i recommend to any beginner is anything by creedence clearwater revival. John Fogerty, whilst not the best guitar player going around created riffs, tones and songs unlike no other musician.
If it wasn't for bad luck, I wouldn't have no luck at all