#1
like the title says, i'm stuck on the fingering for the verse of interstate love song, by the stone temple pilots.

here's the tablature

e|-4-4-x-x-x-4-x-4--4-4-4-4--3-3-x-x-x-3-x-3--3-3-3-3---|
B|-5-5-x-x-x-5-x-5--5-5-5-5--4-4-x-x-x-4-x-4--4-4-4-4---|
G|-6-6-x-x-x-6-x-6--6-6-6-6--5-5-x-x-x-5-x-5--5-5-5-5---|
D|-6-6-x-x-x-6-x-6--6-6-6-6--6-6-x-x-x-6-x-6--6-6-6-6---|
A|-4-4-x-x-x-4-x-4--4-4-4-4--3-3-x-x-x-3-x-3--3-3-3-3---|
E|-----x-x-x---x-----------------x-x-x---x--------------|


e|-----x-x-x---x-----------------x-x-x---x--------------|
B|-2-2-x-x-x-2-x-2--2-2-2-2--2-2-x-x-x-2-x-2--2-2-2-2---|
G|-1-1-x-x-x-1-x-1--1-1-1-1--1-1-x-x-x-1-x-1--1-1-1-1---|
D|-3-3-x-x-x-3-x-3--3-3-3-3--2-2-x-x-x-2-x-2--2-2-2-2---|
A|-1-1-x-x-x-1-x-1--1-1-1-1--1-1-x-x-x-1-x-1--1-1-1-1---|
E|-----x-x-x---------------------x-x-x---x--------------|


fingering advice? i'm supposed to perform this song on friday acoustically, so any immediate help is, well, helpful
A good friend will bail you out of jail

A true friend will be sitting beside you saying ''man, we fucked up but we had it goooood"
#2
EDIT: its more just the second part of the tab showed that i need help with, i have the first line
A good friend will bail you out of jail

A true friend will be sitting beside you saying ''man, we fucked up but we had it goooood"
#3
I'd say, for each chord in turn (1 = index, 2 = middle, 3 = ring, 4 = pinky):

e|--1--1--------|
B|--2--2--2--3--|
G|--4--3--1--1--|
D|--3--4--3--2--|
A|--1--1--1--1--|
E|--------------|