#1
It's kind of Blink or Sum 41 sounding (it might even be them)

Really happy sounding song, I just can't think of any of the lyrics though


-----------------------------------------------
------------------------4-5-4----------------------
-9--9-7----------6--6--------4--2--------------------
----------9-8-8--------------------------------
-7----------------4---------------0-------------
-----------------------------------------------

That's like the intro. There's another fill after the third octave, and then I think the next octave is a B.

Thanks for the help
#2
Wrong forum. Go to Pop Punk & Emo.

*reported*
Edwards Les Paul Custom
Burny SG Junior
DIY Telecaster
Keeley RAT 2
Marshall JCM 800 4104
#3
Quote by RizzoWashburn
Wrong forum. Go to Pop Punk & Emo.

*reported*

why report him. it might even be from a ska song...
A hero of war, Yeah that's what I'll be

(.)(.)..........(.)(.)..........(.)(.)..........(.)(.)..........(.)(.)..........(.)(.)..........(.)(.)
#4
Because he thinks its a Blink or Sum 41 song. If it sounds like either of those bands he should ask in the Pop Punk & Emo forum, not the Punk forum.
Edwards Les Paul Custom
Burny SG Junior
DIY Telecaster
Keeley RAT 2
Marshall JCM 800 4104
#6
Quote by RizzoWashburn
Wrong forum. Go to Pop Punk & Emo.

*reported*



Glad to know that you called the internet police.

Anywho, the tab is screwed up. This is what it should look like about 175 bpm

rhythm... same pattern for all the other octaves played, I think the next two octaves are E and B on the same strings
-----------------------------------|--------------------------|--------------------
-----------------------------------|--------------------------|-----
-9-----------9--9--9--9--9--9-|-9--9--9--9--9--9----|---6---------------------
-----------------------------------|--------------------------|-----------
-7-----------7--7--7--7--7--7-|-7--7--7--7--7--7----|---4--------------------
-----------------------------------|--------------------------|------------
.................pm---------------------------------------->

lead
------------------------------------|-------------------------|----------------
------------------------------------|-9-------7-------------|---------------------
--9--------------------------------|--------------9--8--8--|---6------------------
------------------------------------|-------------------------|------------------
--7--------------------------------|-------------------------|----4---------
------------------------------------|-------------------------|----------------------
Last edited by guitarking10 at Apr 24, 2008,
#7
What's with all the stupid reporting? *shakes head at lvl of patheticness some people have reached*
#10
Quote by dollym92
What's with all the stupid reporting? *shakes head at lvl of patheticness some people have reached*

*facepalm* Look buddy, we report because that's how things work around here. If you don't like it fine, but don't act like we're not doing things right.
Journalism is just a gun. It's only got one bullet in it, but if you aim right, that's all you need. Aim it right, and you can blow a kneecap off the world.
Last edited by axeslash at Apr 29, 2008,