#1
Johnny Boy - Hey Johanna

CAPO 5
REMEMBER CAPO 5 AND THE X2 AND X3'S!!!

Vers 1
Dressing up for my first date with you Johanna
G----------D----------------Em----C
You are the sun, the flowers and the clouds
G---------D---------Em------------C
On a bright sunny day i will think of you
G--------------D---------Em-----C
I've been up and down in my life
C-----------Em-------------D


Refräng
What you gonna do when the rain falls?
C--------------------D---------------------G
What you gonna do when the sun don't shine?
C--------------------D----------------------------G
Hey Johanna
C-D--Em


Vers 2
Walking in the sun light with you Johanna
G---------D-----------Em----C
Thinking of the good times and the bad
G---------D-----------Em-------C
Walking on kungsgatan in luleå
G---------D--------- Em----C
I've been up and down in my life
C-----------Em-------------D


Refräng x2
What you gonna do when the rain falls?
C--------------------D---------------------G
What you gonna do when the sun don't shine?
C--------------------D----------------------------G
Hey Johanna
C-D--Em

Mellanspel
e|--------------------------------------------------------------------|
B|--------------------------------------------------------------------|
G|----9-5-7-5-7------9-5-7-5------9-5-7-5-7------9-5-7-5---|
D|--------------------------------------------------------------------| X2
A|-8---------------10-----------------------------------------------|
E|----------------------------------8----------------8---------------|

e|--------------------------------------------------------------------|
B|--------------------------------------------------------------------|
G|----9-5-7-5-7------9-5-7-5------9-5-7-5-7------9-5-7-5---|
D|--------------------------------------------------------------------|
A|-8---------------10-----------------------------------------------|
E|----------------------------------5----------------5---------------|


Refräng
What you gonna do when the rain falls?
C--------------------D---------------------G
What you gonna do when the sun don't shine?
C--------------------D----------------------------G
Hey Johanna
C-D--Em


Vers 1
Dressing up for my first date with you Johanna
G----------D----------------Em----C
You are the sun, the flowers and the clouds
G---------D---------Em------------C
On a bright sunny day i will think of you
G--------------D---------Em-----C
I've been up and down in my life
C-----------Em-------------D

Refräng
What you gonna do when the rain falls?
C--------------------D---------------------G
What you gonna do when the sun don't shine?
C--------------------D----------------------------G
Hey Johanna
C-D--Em


I didn't know if it was good so i posted it here.. tell me if i need to improve somethin and don't give me any crap about it.. if it aint a good comment keep it for your self.

I am a 13 year old boy from sweden that loves to play guitar! I have made about 10 songs and i don't know if this one is any good.. You don't have to play it just read and tell me if the lyrics are any good.. some things are in swedish like kungsgatan luleå refräng vers and mellanspel
Last edited by gladizh at Apr 24, 2008,