#1
I don't know the lyrics, haven't heard it in years, just popped into my head.

rhythm... same pattern for all the other octaves played, I think the next two octaves are E and B on the same strings
-----------------------------------|--------------------------|--------------------
-----------------------------------|--------------------------|-----
-9-----------9--9--9--9--9--9-|-9--9--9--9--9--9----|---6---------------------
-----------------------------------|--------------------------|-----------
-7-----------7--7--7--7--7--7-|-7--7--7--7--7--7----|---4--------------------
-----------------------------------|--------------------------|------------
.................pm---------------------------------------->

lead
------------------------------------|-------------------------|----------------
------------------------------------|-9-------7-------------|---------------------
--9--------------------------------|--------------9--8--8--|---6------------------
------------------------------------|-------------------------|------------------
--7--------------------------------|-------------------------|----4---------
------------------------------------|-------------------------|----------------------

That's the intro.