#1
Does anyone know any sweep picking or tapping licks in a minor, or a harmonic minor or a
#2
---------------8h12p8
------------10---------10
----------9---------------9
-------10-----------------10
---12----------------------- 12
---
MY GEAR:


Ibanez S470
Vintage: VRS100
Fender FM100R 100WATT
Marshall: MG30DFX 30WATT
Digitech: RP350
Boss: DS-1
Jim Dunlop: Original Crybaby
Crafter: FX-550EQ
Orange: Mini- Krush


Add My Profile
#4
The most popular Am Sweep lick is probably:

E||-----------------12-15-12-------------------||
B||--------------13----------13----------------||
G||-----------14----------------14-------------||
D||--------14----------------------14----------||
A||--12-15----------------------------15-12----||
E||--------------------------------------------||
Proud Owner of:

Jackson RR3
Jackson WRMG

Quote by madbasslover
What's the big deal with Gibsons, anyway?
I've heard loads of Gibsons being played before
and they don't sound any more special than
any other guitar.

^UG's King Of Fail.
#5
Quote by Eternal_One
The most popular Am Sweep lick is probably:

E||-----------------12-15-12-------------------||
B||--------------13----------13----------------||
G||-----------14----------------14-------------||
D||--------14----------------------14----------||
A||--12-15----------------------------15-12----||
E||--------------------------------------------||

No, that's an Am7 and isn't used as often, I'd say the most common shape is this:
E||-----------------12-17-12-------------------||
B||--------------13----------13----------------||
G||-----------14----------------14-------------||
D||--------14----------------------14----------||
A||--12-15----------------------------15-12----||
E||--------------------------------------------||

TS: It also sounds good if you throw in a tap on the top C (20 on high e), and to vary it up start at the top of the arpeggio, go down and then back up.