#1
I checked out this guys version of canon rock and he's a pretty amazing guitarist. I really like his intro to the song. I think its just basic arpeggios hes playing fingerpicked. My ear isn't really developed after 5 months of playing so i was hoping you guys could help me out with this. Or maybe just tell me what chords he's arpeggiating. Thanks

canon video
#6
sorry it looks like crap when i paste it but i'm sure this is how it goes, i cant be 100% cos i done it real quick but just mess around with this.

D A B F# G
-------------|-------5----|--------7-----|---------------|----------------|
-------5-----|----------5-|------------7-|-11------------|-12-------------|
----7-----7-|------------|---------------|-----11--------|-----12---------|
-------------|----7-------|----9---------|---------11----|---------12-----|
-5----------|------------|----------------|------------9--|-------------10-|
-------------|-5----------|-7------------|---------------|------------------|

A F D
-----------------|-----------------|------------------|
-10-------------|-12-------------|-14-------------|
-----11---------|-----12---------|-----14---------|
---------12-----|---------12-----|---------14-----|
-------------12-|-------------10-|-------------12-|
-----------------|-----------------|------------------|
#7
damn that really looks liek crap when i paste it, know any better way of pasting it here? or sending you it?
#8
There is a way to put it in code or something like that but i don't know how to do it. I think i can figure it out though. Thanks again so much dude!!! You're awesome!!