#3
Quote by ZootCst
Tab it? He's telling you exactly what to do. lrn 2 pay attention.


Yes. I realize that he shows you what to do, and I
believe that it would be easier for anybody who
wants to learn these licks if there were a tab.

You sound like you know how to play this exactly.
Perhaps you can tab it...
#4
--15---17---15-------------------------------------------------------------------19--15--17(bend)
--15---17---15-----14--16--14-----------------------------------------15-17----------------------
---------------------- 15--17--15-----14--12-----12------------- 16-------------------------------
---------------------------------------------------14---------14--17-------------------------------------
----------------------------------------------------------------------------------------------------------
----------------------------------------------------------------------------------------------------------

slide the double stops as he said
Last edited by Ordinary at Apr 27, 2008,
#5
Thanks for tabbing it, Ordinary. You rock.

Can anybody else post a tab for the 2nd other guitar lick...? You'll rock too!
#6
For those interested, it's

3rd - 12br
4th - 14 12slide14
then the same as the

-------------------------------------------------------------------------------------17(bend)
----------------------------------------------------------------------15-17----------------------
---------------------------------------------------------------- 16-------------------------------
------------------------------------------------------14--17-------------------------------------
----------------------------------------------------------------------------------------------------------
----------------------------------------------------------------------------------------------------------


There's only a little bit more. And it sounds awesome!

Anybody want to tab the rest?
Last edited by Strutter91 at May 4, 2008,