#1
Ok...man am I desperate. I am so tired from not sleeping at all last night at a party and my band is jammin tommorrow. We haven't written a song in a while and I have some material, but PLEASE, UG i need your help. Just tab any 4 bar (longer if you like) riff off the top of your head and post it...I need inspiration BAD. IF it gets turned into a song at any stage we will give you credit and all that jazz. PLEASE UG I NEED to write a song tonight! Cheers for abny help in advance.

And by the way, I know jammin will help creatively and the BAND should all write a song but I need somethin rough to work on PLEASE!
Mal: "Doctor, I'm taking your sister under my protection here. If anything happens to her, anything at all, I swear to you, I will get very choked up. Honestly, there could be tears." FIREFLY RULES!!!
#7
actually... sorry that was harsh. here you go...

E|------------------------------------------------------------------------|
B|-------------------------------------------------------------------------|
G|-----5-9-8-9-8-5--5-7-5-7-5-7-5------5--5--9-14-12-10-9-7-|
D|5-7------------------------------------7-5--5--------------------------|
A|---------------------------------------------------------------------------|
E|-------------------------------------------------------------------------|
#8
|------------------------------|
|------------------------------|
|-12-12-11-11-9-11-9-9-7-9-7-0-|
|-10-10-9--9—-7-9—-7-7-5-7-5-0-|
|------------------------------|
|------------------------------|

Good luck turning that into a song.
#10
|----------------------------------------------|
|----------------------------------------------|
|----------------------------------------------|
|------5-7/9-7-9--------5-7/9-7-9/10-9-|
|-5-7---------------5-7----------------------|
|----------------------------------------------| x2

not that bad =]
SIG
#11
|-----------|
|-----------|
|-----------|
|-2--------|
|-2--------|
|-0--------|

Enjoy it.
The DNA results show that Jeremy Kyle is a nob.


Quote by titsmcgee852
I want to look at your sexual naked body.
#12
0-3-5 0-3-6-5 0-3-5-3-0
Quote by carcass255
long hair is cool mate

haircuts are for people in concentration camp
#13
Quote by MangeRamone
0-3-5 0-3-6-5 0-3-5-3-0


hmm i like playing that one

ment for low E yeah?

and fast?
SIG