Page 1 of 3
#1
Ok, the seach bar showed up nothing, So here's how it works:
-Each user posts the main riff of a song (In Tab form)
-The user below them has to work out what the song is

Rule:
-You aren't allowed to use "Unknown" bands (eg.local bands)


Ok I'll start with an easy one:
e-----------------------------]
b-----------------------------]
g-----------------------------]
d----------5------------------]
a-7---7------7---5---3--2-]
E-----------------------------]

hintften played on bass, but is played live with an octave pedal
Quote by Spoony_Bard
Dude I got these strings the other day that couldn't be tuned to higher than 4 octaves below middle C then I realized that they were shoelaces and they weren't making any sound at all.
#2
that my friend is Seven Nation Army


--------------------------|
--------------------------|
--------------------------|
----------------7-----------|
--0--0--3--0-----0--6--5--|
--------------------------|

Hehe, very familiar song from a 2000 album
Last edited by Martindecorum at Apr 28, 2008,
#3
|--------------------------------------------------------------------|
|--------------------------------------------------------------------|
|--------------------------------------------------------------------|
|--------------------------------------------------------------------|
|-----2-----3-----4-----3-----2-2-----2-----3------5\4---5\4---5\4---|
|-0-1---0-1---0-1---0-1---0-1-----0-1---0-1---0-0--3\2-0-3\2-0-3\2---|
#6
Quote by lceman13
|--------------------------------------------------------------------|
|--------------------------------------------------------------------|
|--------------------------------------------------------------------|
|--------------------------------------------------------------------|
|-----2-----3-----4-----3-----2-2-----2-----3------5\4---5\4---5\4---|
|-0-1---0-1---0-1---0-1---0-1-----0-1---0-1---0-0--3\2-0-3\2-0-3\2---|



Master of Puppets
#7
right I'll continue with a somewhat tricky one...hopefully this works


|----------------------------|------------------------------|
|----------------------------|------------------------------|
|-10------------------------|-9-7-9----------------------------|
|----------------------------|---------5-5-5-5-5-5-5-5-5-5-5-5-5-5|
|----5-5-5-5-5-5-5-5-5-5-|------------------------------|
|----------------------------|------------------------------|


|-----------------------------|------------------------------|
|-----------------------------|------------------------------|
|-12-------------------------|-10-9-------------------12-10-9----10-9--|
|----8-8-8-8-8-8-8-8-8-8-|------10-10-10-10------------------|
|-----------------------------|----------------------------------------------12-------|
|-----------------------------|------------------------------|


spacing crapped up...but oh well
We walked into the night

Am I to bid you farewell?


Why can't you see that I try
When every tear I shed


Is for you?
#8
Quote by lceman13
|--------------------------------------------------------------------|
|--------------------------------------------------------------------|
|--------------------------------------------------------------------|
|--------------------------------------------------------------------|
|-----2-----3-----4-----3-----2-2-----2-----3------5\4---5\4---5\4---|
|-0-1---0-1---0-1---0-1---0-1-----0-1---0-1---0-0--3\2-0-3\2-0-3\2---|



Whoa what the hell, I was putting the code tags around that as I thought i'd better refresh to see if I had to guess one and you'd posted it.

Anyway, Master Of Puppets.
UG's Official Stuffed Toy! Because I am so cuddly wuddly


I LOVE KENSAI
#9
Quote by Martindecorum
that my friend is Seven Nation Army

Yep! & seeming no-one else has posted 1 yet
another easy one!
[-----------------]
[-----------------]
[------5-----5---]
[--4--5--4--5---]
[--4--3--4--3---]
[--2------2------]
Yeah thats right 2 chords!
Edit:dam that thread grew fast!
Quote by Spoony_Bard
Dude I got these strings the other day that couldn't be tuned to higher than 4 octaves below middle C then I realized that they were shoelaces and they weren't making any sound at all.
#10
Quote by Beast-Wyvern
right I'll continue with a somewhat tricky one...hopefully this works


|----------------------------|------------------------------|
|----------------------------|------------------------------|
|-10---------------------9-7-|-9----------------------------|
|----------------------------|---5-5-5-5-5-5-5-5-5-5-5-5-5-5|
|----5-5-5-5-5-5-5-5-5-5----|------------------------------|
|----------------------------|------------------------------|


|-----------------------------|------------------------------|
|-----------------------------|------------------------------|
|-12---------------------10-9-|-------------12-10-9----10-9--|
|----8-8-8-8-8-8-8-8-8-8------|-10-10-10-10------------------|
|-----------------------------|---------------------12-------|
|-----------------------------|------------------------------|


spacing crapped up...but oh well


Put Code tags so it looks like this

|----------------------------|------------------------------|
|----------------------------|------------------------------|
|-10---------------------9-7-|-9----------------------------|
|----------------------------|---5-5-5-5-5-5-5-5-5-5-5-5-5-5|
|----5-5-5-5-5-5-5-5-5-5----|------------------------------|
|----------------------------|------------------------------|


|-----------------------------|------------------------------|
|-----------------------------|------------------------------|
|-12---------------------10-9-|-------------12-10-9----10-9--|
|----8-8-8-8-8-8-8-8-8-8------|-10-10-10-10------------------|
|-----------------------------|---------------------12-------|
|-----------------------------|------------------------------|
#11
Rightio then...


D|-------------------------------------------------------------------|
A|-------------------------------------------------------------------|
F|-------------------------------------------------------------------|
C|-0-0-10-0-8-0-10-0-8-0-7-0-8-0-7-0-5-0-7-0-5-0-3-0-5-0-3-0-2-0-3/5-|
G|-------------------------------------------------------------------|
C|-------------------------------------------------------------------|


I added the tuning to make it a bit easier since its a bit tricky.

EDIT: wait, does it have to be the main riff? Because that one is like... Halfway through the song.
UG's Official Stuffed Toy! Because I am so cuddly wuddly


I LOVE KENSAI
#12
Quote by gunners fan
Yep! & seeming no-one else has posted 1 yet
another easy one!
[-----------------]
[-----------------]
[------5-----5---]
[--4--5--4--5---]
[--4--3--4--3---]
[--2------2------]
Yeah thats right 2 chords!
Edit:dam that thread grew fast!


I'm guessing this is Green Day.

But seeing as I don't listen to them I have no idea what song it is.
#13
Quote by lceman13
Put Code tags so it looks like this

|----------------------------|------------------------------|
|----------------------------|------------------------------|
|-10---------------------9-7-|-9----------------------------|
|----------------------------|---5-5-5-5-5-5-5-5-5-5-5-5-5-5|
|----5-5-5-5-5-5-5-5-5-5----|------------------------------|
|----------------------------|------------------------------|


|-----------------------------|------------------------------|
|-----------------------------|------------------------------|
|-12---------------------10-9-|-------------12-10-9----10-9--|
|----8-8-8-8-8-8-8-8-8-8------|-10-10-10-10------------------|
|-----------------------------|---------------------12-------|
|-----------------------------|------------------------------|

ah, I see. thanks. well there it is anyways. anyone know it?
We walked into the night

Am I to bid you farewell?


Why can't you see that I try
When every tear I shed


Is for you?
#14
Quote by punkforlife93
I'm guessing this is Green Day.

But seeing as I don't listen to them I have no idea what song it is.

Nope!
hint: its actually a nu-metal song (sorta)
Quote by Spoony_Bard
Dude I got these strings the other day that couldn't be tuned to higher than 4 octaves below middle C then I realized that they were shoelaces and they weren't making any sound at all.
#15

|-----------------------------------|
|-----------------------------------|
|-----------------------------------|
|-----------------------------------|
|-----------------------------------|
|-0-3-5--0-3-6-5--0-3-5--3-0--------|


You'll never guess this..
Quote by Lolcheez324
1 time i was home alone and i said i want a cheeseburger and then mah dad got home and he had a bag of potatoes
#16
Quote by RaNdoM-FeLiX


EDIT: wait, does it have to be the main riff? Because that one is like... Halfway through the song.

yeah so it makes it easier, and it sounds like dream evil or children of bodom
#17
Quote by RaNdoM-FeLiX
Rightio then...


D|-------------------------------------------------------------------|
A|-------------------------------------------------------------------|
F|-------------------------------------------------------------------|
C|-0-0-10-0-8-0-10-0-8-0-7-0-8-0-7-0-5-0-7-0-5-0-3-0-5-0-3-0-2-0-3/5-|
G|-------------------------------------------------------------------|
C|-------------------------------------------------------------------|


I added the tuning to make it a bit easier since its a bit tricky.

EDIT: wait, does it have to be the main riff? Because that one is like... Halfway through the song.

is that forgiveness is murder?
Quote by juan Andrés

Sorry awful Anglish.
#19
Quote by rolling_stoner

|-----------------------------------|
|-----------------------------------|
|-----------------------------------|
|-----------------------------------|
|-----------------------------------|
|-0-3-5--0-3-6-5--0-3-5--3-0--------|


You'll never guess this..



is it water on smoke,.... wait o h no
#20
e|----------------------------|
B|----------------------------|
G|---------9----9-12p10p9-10~-|
D|-12-9-12---12---------------|
A|----------------------------|
E|----------------------------|

e|--------------------------------|
B|--------------------------------|
G|-9h10p9----9-10-12p10p9-10p9----|
D|--------12-------------------12-|
A|--------------------------------|
E|--------------------------------|

e|--------------------------------|
B|--------------------------------|
G|-9h10p9----9--------------------|
D|--------12---12-12p10p9-10p9----|
A|-----------------------------12-|
E|--------------------------------|

e|--------------------------------|
B|--------------------------------|
G|--------------------------------|
D|-9h10p9----9-10-12p10p9-10p9----|
A|--------12-------------------12-|
E|--------------------------------|


hint: Mustaine

 main riff:
e|---------------------------|-------|
B|---------------------------|-------|
G|---------------------------|-------|
D|------9-----------------9--|-------|
A|---7--7--------------7--7--|-------|
E|-6-5---------------6-5-----|--X\\--|
For those who care.
Current Gear
Cort Zenox Z42
Flextone II
Charvel USA So-Cal
Farida M2 Parlour Acoustic
Admira Hand-built Spanish Acoustic
Blackstar HT-5H
Line 6 M13
#21
Guesses on mine so far have not been wrong.
UG's Official Stuffed Toy! Because I am so cuddly wuddly


I LOVE KENSAI
Last edited by RaNdoM-FeLiX at Apr 28, 2008,
#22
e|----------------------------------------------------
B |--------------------------------------------------
G |--------------------------------------------------
D |----------------------------------7-------9-------
A |----------4-------5-------4-------5-------7------
E |-----22-------2-------2-------2------------------
#23
Quote by SG_dave
smoke on the water
Edit: for rolling-stoner


Quote by Martindecorum
is it water on smoke,.... wait o h no


You guys are amazing
Quote by Lolcheez324
1 time i was home alone and i said i want a cheeseburger and then mah dad got home and he had a bag of potatoes
#24
Quote by METAL MILITIA1
e|----------------------------------------------------
B |--------------------------------------------------
G |--------------------------------------------------
D |----------------------------------7-------9-------
A |----------4-------5-------4-------5-------7------
E |-----22-------2-------2-------2------------------
crazy train, the abridged version.
#25

It's tuned a whole step down, if that's any help
time machine. Inadvertently, I had created a
Last edited by iceman_8319 at Apr 28, 2008,
#28
Quote by SG_dave

|------------------|
|------------------|
|------------------|
|------------------|
|2--2-----7------|
|0--0--------6-5-|

repeat as neccessary


Enter Sandman?
#30
Main Theme

|--------------------------------------7-8----------7---------------------|
|---8-10-7-7-7-8--------7-------7----------10-10-10---8-|-8-8-10-7-7---7---|
|-9--------------9--9-9---7-7-9---7--9------------------------------7---7-|
|-------------------------------------------------------------------------|
|-------------------------------------------------------------------------|
|-------------------------------------------------------------------------|
#32

|-------------------------------|---------------------------------------------|
|-------------------------------|---------------------------------------------|
|-----------------3(bend)^1/2--|----------------------------------------------|
|--3--2--3--4-4------------------|---3--2--3--------------------------8-------|
|--3--2--3--4-4------------------|---3--2--3(Slide and back)->>-------8-------|
|--1--0--1--2-2------------------|---1--0--1--------------------------6-------|
#34
Quote by METAL MILITIA1
e|----------------------------------------------------
B |--------------------------------------------------
G |--------------------------------------------------
D |----------------------------------7-------9-------
A |----------4-------5-------4-------5-------7------
E |-----22-------2-------2-------2------------------


Crazy Train?
#36
e|-------------------------------------|--------------3-0------------------|
B|------------------3-3-3--------------|--------------------3-0------------|
G|------------------2-2-2----------2-2-|2-----------------------2^(4)`2p0--|
D|-2----------------0-0-0----------2-2-|2----------------------------------|
A|-2-------------------------------0-0-|0----------------------------------|
E|-0-----------------------------------|-----------------------------------|
#37
Quote by METAL MILITIA1
Main Theme

|--------------------------------------7-8----------7---------------------|
|---8-10-7-7-7-8--------7-------7----------10-10-10---8-|-8-8-10-7-7---7---|
|-9--------------9--9-9---7-7-9---7--9------------------------------7---7-|
|-------------------------------------------------------------------------|
|-------------------------------------------------------------------------|
|-------------------------------------------------------------------------|


Is that needled 24/7 by COB?
Quote by Sir Anonymous
I'd call you a crazy Brit, but your username seems to quite assure your sanity.


Quote by Slaytanic1993
Epic username of pure epicness

To: Jesus=ConArtist
#38
Quote by lceman13
e|-------------------------------------|--------------3-0------------------|
B|------------------3-3-3--------------|--------------------3-0------------|
G|------------------2-2-2----------2-2-|2-----------------------2^(4)`2p0--|
D|-2----------------0-0-0----------2-2-|2----------------------------------|
A|-2-------------------------------0-0-|0----------------------------------|
E|-0-----------------------------------|-----------------------------------|


Back in Black
time machine. Inadvertently, I had created a
#39
|-17-p13----------------13-17p13-17p13-17p13----13-|
|--------15----------15----------------------15----|
|-----------14----14-------------------------------|
|--------------15----------------------------------|
|--------------------------------------------------|
|--------------------------------------------------|


|-18-p13----------------13-17p13-15----13----------|
|--------15----------15-------------17----17-15-13-|
|-----------14----14-------------------------------|
|--------------15----------------------------------|
|--------------------------------------------------|
|--------------------------------------------------|


|-17p13----16p13----16-16b(17)~~-20b(22)~~|-20p17-22b(25)r(22)b(25)\-|
|-------15-------15-------------x---------|-------------------------\|
|-----------------------------------------|--------------------------|      
|-----------------------------------------|--------------------------|
|-----------------------------------------|--------------------------|
|-----------------------------------------|--------------------------|


One of the solos in the song.
#40

E) |--0-0-2--0-4--0-0-5-4--0-2-4-2-0-|


Hint:
It's a Bass line. With repeats
Page 1 of 3