#1
is this the appropriate area to request a tab ? or asking someone to help tab songs ?

pretty new in this forum


Kaze
Last edited by Yume at May 1, 2008,
#3
mostly anime songs people played it by ear recorded themselves and uploaded onto youtube
i'll include the links to it
#4
#5
Had a quick go at battle of rose...



e------------------------------------------------------------------
B--8---8--8-6h8p6--------------------------------------------------
G/5--/5----------8p7------------5-7-------5---8-7-5-4h5p4h4p4--4-5-
D-------------------8-5--/5-6--8----5-6-8----6----------------7----
A------------------------------------------------------------------
E------------------------------------------------------------------      twice
                                                 (trill like he does)
 
then,
     
e------------------------------------------------------
B----------------------8-9-11----9-8h9p8---------------
G-4-5-7--5-7-8--7-8-10--------/8--------10-8--8--7--7--
D-------------------------------------------------10---
A------------------------------------------------------
E------------------------------------------------------

e------------------------------------------------------
B---9-8-9-8---------8-6-8-6---------6-4-6-4-3----------
G----------10-8-7-----------8-7-5------------5-4---4-5-
D-10--------------5---------------3---------------5----
A------------------------------------------------------
E------------------------------------------------------



something like that.
#7
I really like all these tracks. Here's a little bit from 'Suteki da Ne'



e----12-12-----------------------------10--10/12--15-13-12---
B-10------10--8/10--10-8----10/11\10-----10---------------15-
G-----------------7-----9\5----------------------------------
D------------------------------------------------------------
A------------------------------------------------------------
E------------------------------------------------------------

e-13-15-17----12h13-12---------
B----------/10--------15-13-15-
G------------------------------
D------------------------------
A------------------------------
E------------------------------

solo at 2:34

e-------------
G-------------
B-------7-9-10
D-7-8-10------
A-------------
E-------------



I'll probably tab some bits from all of these. But it's getting late.
#8
no problem thanks a bunch.. i like these songs so much XD