#4

|10/12-12-12-10----------------------------------------|
|10/12-12-12-10------10--------------------------------|
|---------------9/11----11-9---------------------------|
|----------------------------12-9-12-----7---7---------|
|------------------------------------7/9---9---9-8-7-5-|
|------------------------------------------------------|

|----------------------------------------------------------------------------|
|----------------------------------------------------------------------------|
|----------------7-9-7------------------------------------7-9-7-9-9b-9-7---7-|
|------------7h9--------------------------------------7h9----------------9---|
|----5-7-7/9---------------5-7-7/9-7-5---5------5h7/9------------------------|
|5-7-------------------5/7-------------7----5h7------------------------------|

These two bars are played continuosly, I just couldn't fit it together on Word

|------------10-12-12/14-------------------------------|
|-----10-12--------------15-12-15-12-10h12-10----------|
|9/11--------------------------------11-------11-------|
|------------------------------------------------12-12-|
|------------------------------------------------------|
|------------------------------------------------------|
#5
And here's my tab for the lead.


 lead

|14p12-------12-14-12--------14p12-------12-------------|
|------12-15----------15-12--------12-15----15-10h12p10-|
|-------------------------------------------------------|
|-------------------------------------------------------|
|-------------------------------------------------------|
|-------------------------------------------------------|


|14p12-------12-14-12---------------------------|
|------12-15----------15-12-10h12-10------------|
|---------------------------11-------11---------|
|---------------------------------------12-12---|
|-----------------------------------------------|
|-----------------------------------------------|



EDIT: Oh, you have the lead already