#1
Anthem - We are the fire

I can play it, but I can't figure out which scale is being played in the quick run right before the 2md solo (its in that interlude right before the solo).... its in A right, but which scale is it? I've always wanted to write fast runs similar to it in some of my band's original stuff but i dont know which scale it is and I dont want to transpose and copy it note for note.
#5
An hour and a half does not warrant a bump.

In fact, nothing warrants a bump.

I know the answer though
#7
Quote by shizzybrane
care to share?


Looks like E minor with a chromatic F thrown in on the D string.
#8
Here is the fast run that starts at 1:52 in the song, it is all alternate picked, in the key of A minor.


      |---3---|                                       
      E   E   E   S  S  S  S  S  S  S  S  S  S  S  S  
E||--------------------------------------------------|
B||--------------------------------------------------|
G||--------------------------------------------------|
D||-----------------------12-14-15----------12-14-15-|
A||--------------12-14-15----------12-14-15----------|
E||--12--13--15--------------------------------------|


               |-----5-----|                           
   S  S  S  S  S  S  S  S  S  E   S  S  E   E          
-----------------------------------------------|-----||
--------------------13-15-17-13--15-17-20--20--|-----||
--12-14-16-------------------------------------|-----||
-----------12-14-15----------------------------|-----||
-----------------------------------------------|-----||
-----------------------------------------------|-----||


Duration Legend
---------------
W - whole
H - half
Q - quarter
E - 8th
S - 16th
T - 32nd
X - 64th
. - note dotted
|-n-| - n-tuplets
New To Town With A Made Up Name

In The Angel's City

Chasing Fortune And Fame
09/03/2012
#9
^The GP tab I saw had the low E play 12-14-15, which is why I assumed E minor. The tab didn't have the second part either, though.
#10
Quote by Alter-Bridge
Here is the fast run that starts at 1:52 in the song, it is all alternate picked, in the key of A minor.


|---3---|
E E E S S S S S S S S S S S S
E||--------------------------------------------------|
B||--------------------------------------------------|
G||--------------------------------------------------|
D||-----------------------12-14-15----------12-14-15-|
A||--------------12-14-15----------12-14-15----------|
E||--12--13--15--------------------------------------|


|-----5-----|
S S S S S S S S S E S S E E
-----------------------------------------------|-----||
--------------------13-15-17-13--15-17-20--20--|-----||
--12-14-16-------------------------------------|-----||
-----------12-14-15----------------------------|-----||
-----------------------------------------------|-----||
-----------------------------------------------|-----||


Duration Legend
---------------
W - whole
H - half
Q - quarter
E - 8th
S - 16th
T - 32nd
X - 64th
. - note dotted
|-n-| - n-tuplets



Thanks for the help man! However, The second measure of your tabs are incorrect.


its goes

-----------------------------------------------------------------------------------
---------------------------------------------17--13-/--17--18--20--18--20-
---12--14--16-----------------12--14-----------------------------------------
------------------12--14--15---------------------------------------------------
-----------------------------------------------------------------------------------
-----------------------------------------------------------------------------------