#1
i have seen the one on this site and i find it hard to play maybe someone knows of an easier version of it somewhere, also an easier version of a town called malice
#2
also just wondering if anyone could point me in the right direction for the chords for up in the sky by oasis-acoustic version if possible,thanks in advance
#3
Come on let's go--
he's playing power chords , but I'm giving you the full chords below:
INTRO:
e|---------------------------------------------|
B|------------------------------------------------|
G|----9--------------------------------------------| etc...
D|----9-----11----11-11--9--9---------------------|
A|----7-----11----11-11--9--9------------------------|
E|-----------9------9--9---7--7------------------------|

Intro: E Dbm Dbm-B

Verse: E Dbm Dbm-B (3) E Dbm A B A Abm

2nd verse: E Dbm Dbm-B E Dbm A B A Abm

Solo: E Dbm Dbm-B E Dbm A E

A E A E B A Abm A B Dbm Abm
come on..

3rd verse: E Dbm Dbm-B E Dbm A E A E A E A E A E


A town called malice--

e|----10--10--10------10--10----------------------------------|
B|----10--10--10------10--10----10---10-----------------------|
G|----11--11--11------11--11----12---11-------------------------| repeat
D|----12--12--12------12--12----12---12----------------------------|
A|---------------------------------------------------------------------------|
E|---------------------------------------------------------------------------|

Verse: F#m Em F#m Em G F#m A

Bridge: Dbm Cm-Bm Dbm Cm-Bm A


Up in the sky--
Chords:
G : 320001
C: x23013
Fadd9:103213
A7: x02023
D: xx0232
Em: 022000

Intro: G C-G C-G C-G C Fadd9 C G C-G

verse: C-G C-G C-G C-G C Fadd9 C G C-G (2)

C A7 G C-G C-G C-G

Bridge: D Em C (2) A7 C G C-G C-G C-G

this is how he plays the 2nd part of the verse: (no strumming included)

e|----3-----3--3---------3-------3--3--3--3----------------------------|
B|----1-----0--1---------2-------3--2--0--2-----------------------------|
G|----0-----0--0---------0-------0--0--0--0------------------------------|
D|----2-----2--2---------2-------2--2--2--2-----------------------------|
A|----3-----3--3---------0-------0--0--0--0-----------------------------|
E|---------------------------------------------------------------------------|
#4
thanks for going to the trouble of finding that info mate, i really appreciate it
#5
also i would like some one to get me the chords for wishing on a star and thinking of you by paul welle two great songs but cant seem to find them on here
#6
Wishing on a star (as played acoustic live)

Chords:

Abm7 : 353333
C6-Abm7:x35555-353333
Cm7(2): 8 10 8 8 8 8
F6-Cm7: x8 10 10 10 10-8 10 8 8 8 8
Dm7: x57565
Cm7: x35343
Ebmaj7:x68786
F6: xx10 10 10 10

Intro: Gm7 C6-Gm7 Cm7(2) F6-Cm7 (2x)

Verse:Gm7 C6-Gm7 Cm7(2) F6-Cm7 (2x) Dm7 Cm7 (4x)

Bridge: Cm7 Dm7 (2x) Ebmaj7 F6 (2x) Ebmaj7


Thinking of you

CAPO on 2nd fret

Chords:

Fmaj7(2): xx3555
Cmaj7: 032000
Fmaj7: 133210
Dm7: xx0211
G: 320001
C: x32010


Intro:Fmaj7(2) Cmaj7 Fmaj7 Cmaj7 (2x)

Verse: Fmaj7(2) Cmaj7 Fmaj7 Cmaj7 (6x) Dm7 G C
#7
thanks again mate the wishing on a star chords look a bit complicated but i suppose its a bit of something to work towards
#8
sorry to be a pain but there is one more song i need, it is YOUR THE BEST THING by PAUL WELLER,thanks to anyone who finds it or points me in the right direction
#9
capo on 2nd fret.....


Gmaj7: 3x0032
F#m7: 244222
Em9: 022032
A13: x02022
E: 022100
Dbm: x46654
Bm: x24432
F#sus: 244422

Intro and Verse: Gmaj7 F#m Em9 A13 (4)

Chorus: E Dbm E Dbm E Dbm Bm E

during the instrumental part, (play verse) the last chord before going to the chorus: F#sus


this is what one guitar does ...

Verse:
e|--7-----10----7-------2------5----2-------2-----2----2-----2------------------------|
B|--7------7-----7------2-------2----2-------3-----3----3-----2-----------------------|
G|--7------7-----7------2-------2----2-------0-----0----0-----0------------------------|
D|--9--------------------4----------------------2-----2----2-----2-----------------------|
A|--10------------------4----------------------2------------------0----------------------|
E|------------------------2---------------------0--------------------------------------|


Chorus:
e|------------9-----11-11---9---------------------9-----7----------------------------|
B|----9------9------9--9-----9---------------------7-----7-----9----------------------|
G|----9------9------9--9-----9------3 times------7-----7-----9------------------------|
D|----9------11----11-11---11-------------------9------9-----9----------------------------|
A|----7------------------------------------------------------------7-------------------------|
E|---------------------------------------------------------------------------------------|