#1
hello everyone,

I'm looking for the exactly tabs\chords of lovestoned-Boyce avenue

Thanks in advance!

have a lovely day!
#3
this is a basic version of his playing, to match his tuning use the capo on the 1st fret...


intro
e|---------------------------------------------------------------------------|
B|---------------------------------------------------------------------------|
G|---------------------------------------------------------------------------| repeat
D|--------------------0---2--------------------------------------------------|
A|------------0---2----------------------------------------------------------|
E|----0---3-------------------0----------------------------------------------|
P.M..................................

chorus
Am Em Am Em
e|---------------------------------------0------0------0-----0---------------|
B|---------------------------------------1------0------1-----0--------------|
G|---------------------------------------2------0------2-----0---------------|
D|-----5-4----4------------------------2------2------2-----2----------------|
A|-----------7---7--5-7--5-----5-----0------2-------0-----2----------------|
E|-----------------------------7----------------0-------------0--------------|
P.M......................................

| Am Em Am B7
e|------0------0------0-----2---------------|
B|--- --1------0------1-----0--------------|
G|------2------0------2-----2---------------|
D|------2------2------2-----1----------------|
A|------0------2-------0-----2----------------|
E|--------------0-------------x--------------|

bridge
e|-----------------------------------------------------------
B|----------------------------------------------------------
G|-----99999999-----777----55555----------------- 2x
D|-----99999999-----777----55555-------------------
A|-----77777777-----555----33333-------------------
E|-----------------------------------------------------------

e|---------------------------------------------------------------------------|
B|---------------------------------------------------------------------------|
G|---1212121212121212------999---99999-------------------------|repeat til the end
D|---1212121212121212------xxx---99999--------------------------|
A|---1010101010101010------999---77777-------------------------|
E|---------------------------------------------------------------------------|


outro
e|-------------------------------------------3---------0-------0-------------|
B|-----------3---------3---------3---3-----3--------3--------0---------------|
G|-------0----------0---------2-----0------0--------2-------0----------------|
D|----2----------2---------0--------x------0--------0-------2----------------|
A|------------------------------------3------2--------x-------2--------------|
E|-------------------------------------------3--------2-------0--------------|