#1
Yesh...i want the keyboard intro from Through the Fire and Flames by DragonForce tabbed for guitar...all submissions are appriciated...So...Yeah...
...Imma Snow Leopard...Rawr....
#2
GH n00b...
FEED ME MATHCORE

Quote by sashki

I also speak German, except no-one gives a shit.


GOOD MORNING SUNSHINE, AWAKE WHEN THE SUN HITS THE SKY
#3
1. Go to Ultimate-Guitar.com
2. Look up the song in under the tabs section.
3. Download a guitar pro 5 tab.
4. ?????
5. PROFIT!!!
We've drained full confession booths, polluted drinking wells with our repentances, and then stood grinning with our arms around the shoulder of a rotting child.



If you resist change, you will be here forever.
#4
get the May '08 issue of Guitar World
Its got the whole song tabbed out over 18 pages, plus it got some good articles too.
#5
Quote by Dudeman5000
GH n00b...

Thank you, sir, for being an ass...nonetheless...yeah....
...Imma Snow Leopard...Rawr....
#6
Bunch of helpful replies here


     S S S S S S S S S S S S S S S S  
E||----------------------------------|
B||--------------------------6-------|
G||--5---7---8---5---7---8-------7---|
D||----5---5---5---5---5---5---5---5-|
A||----------------------------------|
E||----------------------------------|


  S S S S S S S S S S S S S S S S  
--6-------------------------------|
------8---9---6---8-------6-------|
----------------------8-------7---|
----5---5---5---5---5---5---5---5-|
----------------------------------|
----------------------------------|


  S S S S S S S S S S S S S S S S  
----------------------------------|
--------------------------6-------|
--5---7---8---5---7---8-------7---|
----5---5---5---5---5---5---5---5-|
----------------------------------|
----------------------------------|


  S S S S S S S S S S S S S S S S  
--6-------------------------------|
------8---9---6---8-------6-------|
----------------------8-------7---|
----5---5---5---5---5---5---5---5-|
----------------------------------|
----------------------------------|


  S S S S S S S S S S S S S S S S  
----------------------------------|
--------------------------6-------|
--5---7---8---5---7---8-------7---|
----5---5---5---5---5---5---5---5-|
----------------------------------|
----------------------------------|


  S S S S S S S S S S S S S S S S  
--6-------------------------------|
------8---9---6---8-------6-------|
----------------------8-------7---|
----5---5---5---5---5---5---5---5-|
----------------------------------|
----------------------------------|


  S S S S S S S S S S S S S S S S  
----------------------------------|
--------------------------6-------|
--5---7---8---5---7---8-------7---|
----5---5---5---5---5---5---5---5-|
----------------------------------|
----------------------------------|


  S S S S S S S S S S S S S S S S  
--6-------------------------------|
------8---9---6---8-------6-------|
----------------------8-------7---|
----5---5---5---5---5---5---5---5-|
----------------------------------|
----------------------------------|


  S S S S S S S S S S S S S S S S  
----------------------------------|
--------------------------6-------|
--5---7---8---5---7---8-------7---|
----5---5---5---5---5---5---5---5-|
----------------------------------|
----------------------------------|


  S S S S S S S S S S S S S S S S  
--6-------------------------------|
------8---9---6---8-------6-------|
----------------------8-------7---|
----5---5---5---5---5---5---5---5-|
----------------------------------|
----------------------------------|


  S S S S S S S S S S S S S S S S  
----------------------------------|
--------------------------6-------|
--5---7---8---5---7---8-------7---|
----5---5---5---5---5---5---5---5-|
----------------------------------|
----------------------------------|


  S S S S S S S S S S S S S S S S  
--6-------------------------------|
------8---9---6---8-------6-------|
----------------------8-------7---|
----5---5---5---5---5---5---5---5-|
----------------------------------|
----------------------------------|


  S S S S S S S S S S S S S S S S  
----------------------------------|
--------------------------6-------|
--5---7---8---5---7---8-------7---|
----5---5---5---5---5---5---5---5-|
----------------------------------|
----------------------------------|


  S S S S S S S S S S S S S S S S  
--6-------------------------------|
------8---9---6---8-------6-------|
----------------------8-------7---|
----5---5---5---5---5---5---5---5-|
----------------------------------|
----------------------------------|


  S S S S S S S S S S S S S S S S  
----------------------------------|
--------------------------6-------|
--5---7---8---5---7---8-------7---|
----5---5---5---5---5---5---5---5-|
----------------------------------|
----------------------------------|


  S S S S S S  S S S  S  S S S S S S  
--6----------------6h-8p-6-----------|
----8------------8---------8-------8-|
------8-5---5h-8-------------8-5-8---|
----------5--------------------------|
-------------------------------------|
-------------------------------------|

Is that the part you're after?
#7
Yesh, that sounds pretty much like what i need...thanks buckethead jr...
...Imma Snow Leopard...Rawr....