#1
So I think I'm starting to move away from the hardcore stylings of music I use to try and play. I'm in love with psychedelic/trance rock and I just thought this up. It was like it just came so naturally.

Anyways...Here's what I have thus far, I'm sure I will think of alot more to add to it


e-|--7--7--7--5h7p5--6--6--6--5h6p5---3--3--3---2--2---3--3-----|
b-|-5--5--5---------5--5--5----------5--5--5---3--3---2--2--2---|
g-|-------------------------------------------------------------|
d-|-------------------------------------------------------------|
a-|-------------------------------------------------------------|
d-|-------------------------------------------------------------|


And I have no objections to constructive criticism. If it sucks, tell me. If it's good, or you can see anything that could be changed to make it better, or perhaps even anything to add to it, just post it up.

Anyways....Hope ya enjoy it

-Matt
#2
Hello Matt,

It's a nice piece of solo and I like it. Very nice what you did.
Well, I wrote a piece of solo that goes Gyspsy and looks like this:

e--------------------------------5--7!--5h8p5--5h8p5--5h8p5!----------
b-------------------------5--6-----------------------------------------6--9!--
g----------------------8--------------------------------------------------------
d---2--3--7--3--6!------------------------------------------------------------

e----------------------------------------------0--------0--4!-----------------
b-----------------0!--------------0!------0------0--1------------------------
g----------1--2-----------1--2-------2---------------------------------------
d---1--2-----------1--2-------------------------------------------------------

By ! you should keep the note till the last count of the mate 4.
You can use your pointfinger for the begin and last part .

Have fun!
Last edited by CandyMann at May 4, 2008,