#1
Is there anyone out there who could work on the tabs for an unreleased REM song called "On the Fly"... It can be found by visiting REMHQ and clicking on the Take Away Shows...there's a video for it where they play it live...can someone work out fromm that just what the chords are...and post the tab? That would be very appreciated
#3
I can't seem to find your tab...I guess it needs to get approval first and I've not gotten 3 approved tabs in order to see those pending approval...
Last edited by DonH at May 9, 2008,
#4
they rejected it, but anyway, I did something brief for you..

Chords:
Em9: 022002
Cmaj7:x32000
Fmaj7:xx3210
Dsus2:xx0320

Intro:

e|---------2---2-------------------------------------------------------------|
B|---------0------0------------0----------------------------------------------|
G|---------0---------0-----------0--------------------------------------------| (2)
D|---------2------------0h2---------------------------------------------------|
A|---------2------------------------------------------------------------------|
E|----0----------------------------------------------------------------------|


Verse: Em9 Cmaj7 Em9 Cmaj7 Em9 Cmaj9 Fmaj7 Cmaj7 (3)

Fmaj7 Cmaj7 (4) Dsus2 Cmaj7

Verse: Em9 Cmaj7 Em9 Cmaj7 Em9 Cmaj9 Fmaj7 Cmaj7 (3)

Fmaj7 Cmaj7 (7) Dsus2 Cmaj7 (4)


this is the arpeggio played for the Cmaj7 chord....
e|-----0-----0---------------------------------------------------------------|
B|-----0--------0------------0-----------------------------------------------|
G|-----0------------0-----------0--------------------------------------------|
D|-----2---------------0h2--------------------------------------------------|
A|-----3---------------------------------------------------------------------|
E|---------------------------------------------------------------------------|
#5
there's some Cmaj9 that I typed which is wrong.. it's supposed to be Cmaj7..
#6
Thanks a lot It's a good tab...don't know why it would get rejected. I appreciate your help!
Last edited by DonH at May 10, 2008,