#2
i'm getting on it - i'm fairly certain it's drop D for a start...
#3
Im doing it now ive got the intro how do you think this sounds:


Tuning: DADGBe

Intro 1: 00:00-00:06
e|---------------------------------------|
B|---------4-4-4-4-4-4-4-4-4-4-4-4-|
G|---------------------------------------| x2
D|--3-3-3------------------------------|
A|--3-3-3------------------------------|
D|--3-3-3------------------------------|

Intro Part 2: 00:06-00:11
e|------------------------------------------|
B|---------4-4-4-1-1-1-------------------|
G|------------------------1-1-1-----------| x2
D|--3-3-3---------------------------------|
A|--3-3-3---------------------------------|
D|--3-3-3---------------------------------|

Intro Part 3: 00:11-00:17
e|-------------------------------------------|
B|----------7-7-7--------------------------|
G|------------------5-5-5-6-6-6----------|
D|-6-6-6-----------------------------------| x2
A|-6-6-6-----------------------------------|
D|-6-6-6-----------------------------------|

Intro Part 4: 00:17-00:22
e|-----------------------------------------------|
B|-----------------------------------------------|
G|-----------------------------------------------| x2
D|-3--4--3--4--3--4--------2-4--------------|
A|-3--4--3--4--3--4---2-4-------------------|
D|-3--4--3--4--3--4--------------------------|

Dont Steal It Anyone
Last edited by mattylaneguitar at May 20, 2008,
#4
Okay here's what i came up with:

Tuning : Drop Db not Drop D

Intro 1: 00:00-00:06
eb|---------------------------------------|
Bb|---------5-5-5-5-5-5-5-5-5-5-5-5-|
Gb|---------------------------------------| x2
Db|--4-4-4------------------------------|
Ab|--4-4-4------------------------------|
Db|--4-4-4------------------------------|

Intro Part 2: 00:06-00:11
eb|------------------------------------------|
Bb|---------5-5-5-2-2-2-------------------|
Gb|------------------------2-2-2----------| x2
Db|--4-4-4---------------------------------|
Ab|--4-4-4---------------------------------|
Db|--4-4-4---------------------------------|

Intro Part 3: 00:11-00:17
eb|-------------------------------------------|
Bb|----------8-8-8--------------------------|
Gb|------------------6-6-6-7-7-7----------|
Db|-7-7-7-----------------------------------| x2
Ab|-7-7-7-----------------------------------|
Db|-7-7-7-----------------------------------|

Intro Part 4: 00:17-00:22
eb|-----------------------------------------------|
Bb|-----------------------------------------------|
Gb|-----------------------------------------------| x2
Db|-4--0--4--0--4--0--------2-4--------------|
Ab|-4--0--4--0--4--0---4-0-------------------|
Db|-4--0--4--0--4--0--------------------------|

Verse (With PM)

Who is this imposter...

eb|----------------------------------------------------|
Bb|---10-1010101010-9-9-9--7--7--7--etc----|
Gb|----9--9--9-9--9--9-9-9-9--9--9--9----------|
Db|----7----------------------------------------------|
Ab|----------------------------------------------------|
Db|----------------------------------------------------|

Riff after the palm muting

eb|------------------------------------------------|
Bb|--------10-------------------------------------|
Gb|-------------9p0------------------------------| x4
Db|-----7---------------9h11--------------------|
Ab|-------------------------------------------------|
Db|-------------------------------------------------|

Then first verse riff again

Then second verse riff before chorus