#1
Hey everyone..if there are any fans of 10 Years the new album (Division) is a must have. They have a beautiful acoustic song on there called So Long Goodbye...if anyone can help me out with a tab it would be greatly appreciated. Thanks!
#2
great song to sing with...

not so difficult


hope it will be here soon


division album of 2008 sofar
#4
come on UG ....

there must be some one who make this correct tab.....

10 years rocks my socks
#5
I remember trying to tab the whole song, but i got stuck on a small part, anyways I'll do it later, check this thread tomorrow...
#6
try this:
tune to Eb
e: -----------------------------------------------------------3
b: ---------1------------------------0-------------1---1----0----1
g:---2---2----(2)----------0---0-----(0)---------0---0---0----2
d:-2----------------------2------------------------2---2----0----2
a:--------------------------------------------------3---3----2-----
e:------------------------------------------------------------3


that's all I got right now. Sounds pretty decent to me.
Last edited by bwyennicks at May 26, 2008,
#7
tuning: standard down 1 fret.

intro
e|---------------------------------------------------------0------------------|
B|-----------------------------------------------0--0-----1------------------|
G|----5-------------5--------4-----------4----4---4----2--------------------|
D|---------7---------------------5-------------5---5----2--------------------| (2)
A|----0---------0------------3-------3--------5---5----0---------------------|
E|----------------------------------------------3---3-------------------------|

Verse:
e|---------------------------------------------------------0------------------|
B|-----------------------------------------------0---0----1------------------|
G|----5-------------5--------4-----------4----4---4----2--------------------|
D|---------7---------------------5-------------5---5----2--------------------| (3)
A|----0----------0-----------3-------3--------5---5----0---------------------|
E|----------------------------------------------3---3-------------------------|


e|--------------0-------0-------0----------|
B|--------------1-------3-------1----------|
G|-----4-------2-------4-------2----------|
D|-----5-------2-------5-------2----------|
A|-----5-------0-------5-------0----------|
E|-----3----------------3------------------|


Chorus:
e|---0-----3----3----0-----0-------0------3-----3-----0------------------------------|
B|---1-----3----3----1-----0h1----1------3-----3-----1-------------------------------|
G|---0-----0----0----2-----2-------0------0-----0-----2-------------------------------|
D|---2-----0----0----2-----2-------2------0-----0-----2-------------------------------| (2)
A|---3-----2----2----0-----0-------3------2-----2-----0-------------------------------|
E|----------3----3--------------------------3-----3------------------------------|


small change on 2nd verse:
e|----------------------------------------------------0------------------|
B|-------------------------3-------3-------0---0----1------------------|
G|----9-------9---------------4-----------4---4----2--------------------|
D|--------10-------------------------------5---5----2--------------------|
A|----0-------------------3----------------5---5----0---------------------|
E|------------------------------------------3---3-------------------------|

Solo:
e|------------0------------0------0---------------0-----------------0----0--------0---0---|
B|------------0------------0------0---------------0-----------------0----1--------1---0----|
G|------------5------------7------4---------------5-----------------7----0--------0---0----| (2)
D|--------7------------9----------5-----------7---------------9----------2--------2---2----|
A|-----0----------10--------------3-------0-------------10--------------3--------3---3----|
E|-----------------------------------------------------------------------------------------------|

e|------------0-----------0--------|
B|-----0-----1-----0-----1---------|
G|-----4-----2-----4-----2--------|
D|-----5-----2-----5-----2--------|
A|-----5-----0-----5-----0--------|
E|-----3------------3-------------|
oohh ohhh
#8
I think the intro and verse sequence is actually 0-7-7-5-7 , 3-5-5-4-5(on respective strings). It sounds great and looks like where the player's fingers are in the video link I had above.