#1
what do you do for a riff like this. like what do you pick up and what do u pick down.


---------------------------------------------------------------------------------------------------------
----------------------------------------------------------------------------------------------------
--------------------------------------------------------------------10---------10-12------10-12-13-
----------------10----------10-12------10-12-13-10-12-13-----12-13----------13------------
---10-12-13------12-13----------13---------------------------------------
----------------------------------------------------------------------------??????????????
#2
Alternate?
Play the man, Master Ridley; we shall this day light such a candle, by God's grace, in England, as I trust shall never be put out.
#5
you could down pick every first note wheen the the notes change strings like this:

---------------------------------------------------------------------------------------------------------
----------------------------------------------------------------------------------------------------
--------------------------------------------------------------------10---------10-12------10-12-13-
----------------10----------10-12------10-12-13-10-12-13-----12-13----------13------------
---10-12-13------12-13----------13---------------------------------------
----------------------------------------------------------------------------??????????????

this is probably how i would do it. dark red means downpicked
#6
D U D D U D D U U D U D U U D U U D D U U D U D
---------------------------------------------------------------------------------------------------------
----------------------------------------------------------------------------------------------------
--------------------------------------------------------------------10---------10-12------10-12-13-
----------------10----------10-12------10-12-13-10-12-13-----12-13----------13------------
---10-12-13------12-13----------13---------------------------------------
----------------------------------------------------------------------------??????????????

wat i'd do
(\__/)
(='.'=) This is Bunny. Copy and paste Bunny into your
(")_(") signature to help him gain world domination.
part of Trumpet Player's Alliance
Pimus sucks group
80s rock group
Quote by frozen_soul
ummm testicular cancer?