#1
hey guys im tryin to post my first tab but ppl keep denying it ... -__- tell me if this is a good tab

Song: A Beautiful Lie
Artist: 30 Seconds To Mars
Album: A Beautiful Lie
Tuning: Idk...

the Intro/Bridge/Outro can be played in several ways. there is this way (this is the one i use)
X:------------------|
X:--13-12---------|
X:----------12~---|
X:------------------| or
X:------------------|
X:------------------|

X:--------------------|
X:--13-12--8~-----|
X:--------------------| or
X:--------------------|
X:--------------------|
X:--------------------|

X:--13-12--9~-----|
X:--------------------|
X:--------------------| or
X:--------------------|
X:--------------------|
X:--------------------|

X:---9-8--4~------|
X:-------------------|
X:-------------------|
X:-------------------|
X:-------------------|
X:-------------------|

Chorus:
(All the song goes around this 4 chords)
X:----------------------------------|
X:----------------------------------|
X:-------------8------10----------|
X:--8----4-----8------10---------| i think each chord is played 16 times?
X:--8----4-----6-------8---------| (listen to the song to be exact if you
X:--6----2------------------------| want)

Verse:
X:-------------------------------|
X:-------------------------------|
X:-------------------------------|
X:----10(x32)-9(x32)--------| x2
X:-------------------------------|
X:-------------------------------|
the guitar during the verse is a bit hard to hear since its being played low. u can barely hear it over the (bass?)

rate it from 1 - 10 thx
#3
Quote by +the betrayal+
30 seconds to mars are like the most " I so want to be emo" band in the world -_-

they're not that emo they kinda half-emo/alt. rock -ish so :P
#4
*reported*

It's probably being denied cause there are already enough tabs for this song that are a lot better than this, this seems like a lazy effort. Also this is the completely wrong forum, can't you see the tab talk forum?