#1
well i learned the bass part for stare at the sun by Thrice but i'm pretty sure the verse is wrong, and every tab says the same thing, even on other sites. does anyone have a tab for the verse that they are sure is 100% correct laying around that they could throw my way? this would be super appreciated

thanks
#2
I think it's like this ...sometimes tabbing on the replay sucks...


G|--8-------------7--------8------------7-------------8-8-------------7---
D|------5----8-------5--------5----8-------5----8----------5----8-------- 4x
A|----------------------------------------------------------------------------
E|-----------------------------------------------------------------------------
#3
G|--8---------7------8----------7------------8-8------------7---
D|-----5---8-----5------5---8------5----8--------5-----8------- 4x
A|-------------------------------------------------------------------
E|------------------------------------------------------------------