#1
Anyone got a tab (or powertab file) of Agalloch's "Hallways of Enchanted Ebony" or wouldn't mind making one, I'm too busy making another tab and writing to do it.

R.I.P. Charles Michael "Evil Chuck" Schuldiner
B. May 13 1967 - D. December 13 2001

Quote by eggsandham2
cuz ppl hate how power metal they are cuz they think its "gay" or w.e, which is immature and dirogitory
#2
tuning: Eb Ab Db Gb Bb eb
I'm kinda busy too, at least you've got the intro....

e|--------------------------------------------------------------------------------------------------------------|
B|---1------0---------1------------0-----------------------------0-------------------------------------------|
G|-----2-------2----------2------------2------0-------------0-------0---------0---------------0-----------|
D|-------2--------2------------2-----------2--------------------------------------------------2-----2----0-|2x
A|-------------------------------------------------------3--------------------3-----0-----3-------------3----|
E|--------------------------------------------------------------------------------------1-----------------------|

e|---------------------------------------------------|
B|-----------------------1----0---------------------|
G|------------2--------------------2----------------|
D|-------2--------2---------------------2----------| 4x
A|---0-----------------------------------------------|
E|---------------------------------------------------|