#4
I'll just give you the intro and the rest of the chords...
Chords:
C: x32010
Am: x02210
Dm: xx0231
G; 320033
G/B: x20033
A7: x02020
F; 133211
Em; 022000
E7: 022130


INTRO:
e|-----0------0---------------3-------------
B|-----1---------------3---------------------
G|-----0---0-----0--------0-----0----------
D|-----3-------------------------------------
A|--------------------------------------------
E|--------------------------------------------

e|------0------0-----------3------------
B|------1-------------3-----------------
G|------0---0----0------0----0-------- (2)
D|------2-------------------------------
A|------3--------------------------------
E|----------------------------------------

e|-----0--------0---------------3---------
B|-----1----------------3-----------------
G|-----0----0------0-------0------0------ (2)
D|-----2-----------------------------------
A|-----0-----------------------------------
E|-------------------------------------------

e|-----0------0---------------3-------------
B|-----1---------------3---------------------
G|-----0---0-----0--------0-----0---------- (2)
D|-----3-------------------------------------
A|--------------------------------------------
E|--------------------------------------------

Verse: C Am Dm G (2)
Chorus: C G/B A7 Dm F Em Am Dm G
Solo: F G E7 Am Em Dm F G

Last part after chorus:
e|------------------------------------0-------------------------------------
B|------------------------------------1-------------------------------------
G|------------------------------------0-------------------------------------
D|----8888-----77----66----------2--------------------------------------
A|----8888-----77----66----------3--------------------------------------
E|----6666-----55----44-------------------------------------------------