#1
i was wondereing if any of you know the tab for the little thing before the solo in Linving Dead Beat by Children of Bodom. Its not the solo its the thing before it that sounds an open string and then notes up by the 12th fret. I dont know. Does anyone have the tab for it???

thanks
Quote by campbell92
Do you actually dance after each post you make?

...that would be so badass.




!!PanterA!!

Memeber #7 of the Altar Of Slayer!!
#3
Quote by Gregray88
Be more specific?

theres a little pre-solo before the actual solo. just listen to it and u will know what im talkin about
Quote by campbell92
Do you actually dance after each post you make?

...that would be so badass.




!!PanterA!!

Memeber #7 of the Altar Of Slayer!!
#4
Wait a second...
I think, I've got, what you mean...

EDIT: Hope that's right:

Children of Bodom - Living Dead Beat (Pre Solo)

Repeat 2x:

     |--12--0--0--10--12--0--0--10--12--0--19--0--14--12--10--14--||--12--0--0--10--12--0--0--10--12--0--19--0--14--12--10--14--|
  T  |------------------------------------------------------------||------------------------------------------------------------|
  A  |------------------------------------------------------------||------------------------------------------------------------|
  B  |------------------------------------------------------------||------------------------------------------------------------|
     |------------------------------------------------------------||------------------------------------------------------------|
     |------------------------------------------------------------||------------------------------------------------------------|


     |--12--10------14--12------12--10--14--17--12--17--14--12--10--14--||--12--0--0--10--12--0--0--14--17--14------0--14--11------0--|
  T  |----------10----------10------------------------------------------||------------------------------------------------------------|
  A  |------------------------------------------------------------------||--------------------------------------17-------------14-----|
  B  |------------------------------------------------------------------||------------------------------------------------------------|
     |------------------------------------------------------------------||------------------------------------------------------------|
     |------------------------------------------------------------------||------------------------------------------------------------|

				   +-3-+   +-3-+   +-3-+    +-3-+	  +-3-+    +-3-+    +-3-+    +-3-+   
     |--11--8------0--8--5-----8--11-8----------8-14-11----------11--||--17-14----------14-20-17----------17-21♠---------|
  T  |---------------------------------10----10---------13----13-----||--------16----16----------19----19----------------|
  A  |---------11-----------8-------------11---------------14--------||-----------17----------------20-------------------|
  B  |---------------------------------------------------------------||--------------------------------------------------|
     |---------------------------------------------------------------||--------------------------------------------------|
     |---------------------------------------------------------------||--------------------------------------------------|

S.o.D.
Last edited by DiTThO at Mar 26, 2015,
#5
thanks man thats it
Quote by campbell92
Do you actually dance after each post you make?

...that would be so badass.




!!PanterA!!

Memeber #7 of the Altar Of Slayer!!