#1

-------------------------------------------------------------------------------
			     SONG NAME - Band Name
-------------------------------------------------------------------------------
Tabbed byrew Merino
Email:dm1027@gmail.com

Tuning:
This song is in standard tuning. E A D G B E

Its played in the key of Bmaj

A# B C# D# E F# G#


INTRO
e|--2-2h4p2---1-1h2p1-----------------9\-----------------------|
B|--2---------2----------------3-------------------------------|
G|--3---------3---------1------4-------------------------------|
D|--4---------3---------2------4-------------------------------|
A|----------------------2------2-------------------------------|
E|----------------------0--------------------------------------|  x2

VERSE
e|--2-2h4p2---1-1h2p1-----------------9\-----------------------|
B|--2---------2----------------3-------------------------------|
G|--3---------3---------1------4-------------------------------|
D|--4---------3---------2------4-------------------------------|
A|----------------------2------2-------------------------------|
E|----------------------0--------------------------------------| x4
 
e|-------------------------------------------------------------|
B|--------------3----------------------------------------------|
G|--3----3------4----------------------------------------------|
D|--4----4---2--4----------------------------------------------|
A|--4----4---2--2----------------------------------------------|
E|--2----1---0-------------------------------------------------|x4 
If you have a second guitar keep playing this softly under the lead

Solo 1:
e|---------------------------------------------------------------------------|
B|----------------(11)-------------------------------------------------------|
G|----8v-8b9b8----------8-10-8-----------------------------------------------|
D|-------------11---------------9----11------11v--10-8---8-10-11-------------|
A|---------------------------------9-------------------12--------------------|
E|---------------------------------------------------------------------------|

e|---------------------------------------------------------------------------|
B|---------------------------------------------------------------------------|
G|---13-11--10--13-/-15------------------------------------------------------|
D|---------------------------------------------------------------------------|
A|---------------------------------------------------------------------------|
E|---------------------------------------------------------------------------|

Intro/Verse
e|--2-2h4p2---1-1h2p1-----------------9\------------------------------------------|
B|--2---------2---------------3---------------------------------------------------|
G|--3---------3---------1-----4---------------------------------------------------|
D|--4---------3---------2-----4---------------------------------------------------|
A|----------------------2-----2---------------------------------------------------|
E|----------------------0---------------------------------------------------------|

The song goes on back and forth around that lead and these chords for a while. The rest of the song. Use this part as a place for a little  jam... Its around the Bmaj scale (I'm 90% sure). So just have fun messing around.


Any questions or comments you can email me at [email]dm1027@gmail.com[/email]

I'll also so requests for some Moe. or Tea Leaf Green things you have since people dont tab them much.

| /  slide up
| \  slide down
| h  hammer-on
| p  pull-off
| ~  vibrato
| +  harmonic
| x  Mute note
===============================================================================