#1
Hey everybody, I was just starting to tab out "It Had To Be You" by Motion City Soundtrack, for lack of any tab at all on UG and was having a bit of trouble. I could use an extra ear on this because I don't know if the first chord I found is correct for the picking.

Now I'm pretty sure the chord picked for the intro. starts at:

e |---------------------|
B |---------------------|
G |---------------------|
D |------15------15---|
A |-----------13-------|
E |---13---------------|

Or!

e |---------------------|
B |---16---16---------|
G |---------------------|
D |------15-----------|
A |---13--------------|
E |--------------------|

I just can't tell if I'm a fret off or if I have the pattern wrong. The song has some definite picking, but it's hard to tell if he picks 4 or 5 strings with how fast he does it. I don't know, my ear's just not close enough to the ground.

After this, I'm pretty sure the pre-chorus progression begins at one of these 13/15 power chords though with some muting than just goes up the fretboard. It's just this intro. part that has me bugged.

I can see now why this wasn't put up sooner.
#2
e|---------------------------------------------|
B|-------6------6-----------------------------|
G|----8----------------------------------------|
D|----------8----------------------------------|
A|----------------------------------------------|
E|----------------------------------------------|

e|---------------------------------------------|
B|-------6------6-----------------------------|
G|----7----------------------------------------|
D|----------8----------------------------------|
A|----------------------------------------------|
E|----------------------------------------------|