#1
Hey can anyone tab this? it's a great song with great guitar

TG
Fighting for peace, is like screwing for virginity

Screw you Waldo, go find yourself!!!!
#2
Tuning: Eb Ab Db Gb Bb eb

Chords;
Em7: 022033
D: xx0232
D/F#:2x0232
Bm: x24432
Asus4:x02230

Em7 D Em7 D Em7 D/F# Bm Asus4 Bm Asus4

eb|---------------------------------------------------------------------------|
Bb|---------------------------------------------------------------------------|
Gb|---7777777777---1111111111-------1616161616--------------| (2)
Db|---------------------------------------------------------------------------|
Ab|--5555555555----9-9-9-9-9-9-9-----1414141414---------------|
Eb|----------------------------------------------------------------------------|

eb|---------------------------------------------------------------------------|
Bb|---------------------------------------------------------------------------|
Gb|--------------16161616--------------------141414----16/18-------| (2)
Db|---9999----------------------777777----------------------------------|
Ab|---9999-----14141414----777777------121212----14/16-------|
Eb|---7777----------------------555555----------------------------------|

eb|---------------------------------------------------------------------------|
Bb|---------------------------------------------------------------------------|
Gb|-----161616161616-------141414141414-------------------------|
Db|-----161616161616-------141414141414-------------------------|
Ab|-----141414141414-------121212121212-------------------------
Eb|---------------------------------------------------------------------------|


Bm Asus4 Bm Asus2

eb|---------------------------------------------------------------------------|
Bb|---------------------------------------------------------------------------|
Gb|---7777777777---1111111111-------1616161616--------------|
Db|---------------------------------------------------------------------------|
Ab|--5555555555----9-9-9-9-9-9-9-----1414141414---------------|
Eb|----------------------------------------------------------------------------|

eb|--------------------------------------------------------------------------------|
Bb|--------------------------------------------------------------------------------|
Gb|---7777777777---1111111111-------1616161616-----666--7------|
Db|--------------------------------------------------------------------------------|
Ab|--5555555555----9-9-9-9-9-9-9-----1414141414------444--5-----|
Eb|--------------------------------------------------------------------------------|
Last edited by crmrz at May 11, 2008,